Guns N' Roses

Welcome to the Jungle (ver.2) Tab

Guns N' Roses

Difficulty: AdvancedAdvanced

by Jonh+Petrucci

tuner correct add songbook print version text version save to e-mail
chordsukulelecavacokeyboardtabbassdrumsharmonicsflute Guitar Pro
close

there isn't a video lesson for this song

request
chords

Welcome to the Jungle (ver.2)

  		 
Words and Music by W. Axl Rose, Slash, Izzy Stradlin', Duff McKagan & Steven Alder 
 
Gtr I (Eb Ab Db Gb Bb Eb) - 'Slash - Rhythm / Lead w/dist' 
Gtr II (Eb Ab Db Gb Bb Eb) - 'Slash - Rhythm / Lead w/dist' 
Gtr III (Eb Ab Db Gb Bb Eb) - 'Izzy Stradlin' - Rhythm / Lead w/dist' 
Gtr IV (Eb Ab Db Gb Bb Eb) - 'Izzy Stradlin' - Rhythm clean electric (Gtr III clean)' 
Gtr V (Eb Ab Db Gb Bb Eb) - 'Izzy Stradlin' - Rhythm clean electric' 
 
Intro 
  Q=104 
 4/4 
  Gtr I 
  S  S   S  S  S   S   S   S   S   S  S S S  S   S   S 
|-------------------------------------------------------| 
|-------------------------------------------------------| 
|-4-(4)-(4)-4-(4)-(4)-(4)-(4)-(4)-(4)-4-4-4-(4)-(4)-(4)-| 
|-------------------------------------------------------| 
|-------------------------------------------------------| 
|-------------------------------------------------------| 
 
 
 2/4                                 4/4 
   S   S   S   S   S   S   S   S      S  S  S S  S  S S  S  S S  S  S S  S  S  S 
|---------------------------------||-----------------------------------------------|| 
|---------------------------------||o---------------------------------------------o|| 
|-(4)-(4)-(4)-(4)-(4)-(4)-(4)-(4)-||--4-(4)-4-2-(2)-2------------------------------|| 
|---------------------------------||------------------4-(4)-4-2-(2)-2-0-(0)--------|| 
|---------------------------------||o---------------------------------------2-(2)-o|| 
|---------------------------------||-----------------------------------------------|| 
                                   |-Riff A                             end Riff A-| 
 
w/Riff A x4 
  Gtr II 
                                                                                       PM| 
  S  E.     +H              E     E       a     +S  +E    S +Q          +Q       E     S  S 
|---------------------------------------|----------------------------------------------------| 
|---------------------------------------|----------------------------------------------------| 
|---------------------------7-----9-----|-9b10==(9)r(9)---7-(7)---------(7)\-----------------| 
|-7h=9------(9)-------------------------|----------------------------------------------7--7--| 
|---------------------------------------|----------------------------------------------------| 
|---------------------------------------|----------------------------------------------------| 
| 
| Gtr III 
| W                                              W 
|---------------------------------------|----------------------------------------------------| 
|---------------------------------------|----------------------------------------------------| 
|---------------------------------------|----------------------------------------------------| 
|-9-------------------------------------|--------7-------------------------------------------| 
|-9-------------------------------------|--------7-------------------------------------------| 
|-7-------------------------------------|--------5-------------------------------------------| 
 
 
  S  E.     +H                    E     E 
|------------------------------------------------| 
|------------------------------------------------| 
|------------------------------------------------| 
|-7h=9------(9)-------------------------9--------| 
|------------------------------------------------| 
|------------------------------------------------| 
| 
| W 
|------------------------------------------------| 
|------------------------------------------------| 
|------------------------------------------------| 
|-5----------------------------------------------| 
|-5----------------------------------------------| 
|-3----------------------------------------------| 
 
 
  H.                               Q 
|----------------------------------------------| 
|----------------------------------------------| 
|----------------------------------------------| 
|-2--------------------------------------------| 
|----------------------------------------------| 
|----------------------------------------------| 
| 
| W 
|----------------------------------------------| 
|----------------------------------------------| 
|----------------------------------------------| 
|-2--------------------------------------------| 
|-2--------------------------------------------| 
|-0--------------------------------------------| 
 
 
  H.                       E   S S   H               +Q.           E 
|-7----------------------------7s5-|-5---------------(5)--------------| 
|-7----------------------------7s5-|-5---------------(5)--------------| 
|----------------------------------|----------------------------------| 
|----------------------------------|----------------------------------| 
|----------------------------------|----------------------------------| 
|----------------------------------|-------------------------------0--| 
| 
| W                                  W 
|----------------------------------|----------------------------------| 
|----------------------------------|----------------------------------| 
|----------------------------------|----------------------------------| 
|-9--------------------------------|-7--------------------------------| 
|-9--------------------------------|-7--------------------------------| 
|-7--------------------------------|-5--------------------------------| 
| 
| PM----------------------------- 
| S  S S S S S S S S S S S S S E 
|----------------------------------| 
|----------------------------------| 
|-4--4-4-2-2-2---------------------| w/Riff A x2 
|--------------4-4-4-2-2-2-0-0-----| 
|------------------------------2---| 
|----------------------------------| 
|-Riff A1              end Riff A1-| 
 
  W                               H    H      E E E E E E E E 
|-0-----------------------------|-----------|-----------------| 
|-0-----------------------------|-3---------|-------------3-5-| 
|-------------------------------|-2----2----|---------2-4-----| 
|-------------------------------|-0----2----|-----2-4---------| 
|-------------------------------|------0----|-2-4-------------| 
|-------------------------------|-----------|-----------------| 
| 
|                                             PM----| 
| W                               H    H      E E E E E E E E 
|-------------------------------|-----------|-----------------| 
|-------------------------------|-3---------|-----------------| 
|-------------------------------|-2----2----|-----------------| 
|-2-----------------------------|-0----2----|-4-4-4-4-4-4-4-4-| 
|-2-----------------------------|------0----|-2-2-2-2-2-2-2-2-| 
|-0-----------------------------|-----------|-----------------| 
 
 
 
                               Faster Q=124 
  Gtr II 
                       ~                            PM----| 
  a    +E   E E    +E  Q   Q      Q   E     S S +S  S E E E 
|-----------5------------------||---------------------------| 
|-5b7==(5)r---5pb6r(5)-3-------||---------------------------| 
|------------------------------||-2---------2-2-(2)---------| 
|------------------------------||-2---------2-2-(2)---------| 
|------------------------------||-0---------0-0-(0)-------0-| 
|-------------------------10\--||-----3b3.5---------3-3-2---| 
| 
| Gtr III 
|       E   E E     E  Q   Q      E E E     S S +S  S E E E 
|------------------------------||---------------------------| 
|------------------------------||---------------------------| 
|------------------------------||---------------------------| 
|-------4---4-4-----4--4-------||---------------------------| 
|-------2---2-2-----2--2-------||-7-7-5-----7-7-(7)-7-5-4-0-| 
|-------------------------10\--||-5-5-3-----5-5-(5)-5-3-2---| 
 
 
                        PM----| 
    E S S E     S S +S  S E E E 
||-------------------------------|| 
||o-----------------------------o|| 
||--2-x-x-------2-2-(2)----------|| 
||--2-x-x-------2-2-(2)----------|| 
||o-0-x-x-------0-0-(0)-------0-o|| 
||--------3b3.5---------3-3-2----|| 
| 
|   E E   E     S S +S  S E E E 
||-------------------------------|| 
||o-----------------------------o|| 
||-------------------------------|| 
||-------------------------------|| 
||o-7-7---5-----7-7-(7)-7-5-4-0-o|| 
||--5-5---3-----5-5-(5)-5-3-2----|| 
 
 
        Q          e   S S +Q        S S E 
|----------------------5-5-(5)----------------|| 
|---------------------------------------------|| 
|-------2----------x--------------------------|| 
|-------2----------x--------------------------|| 
|-------0----------x-----------------5p3------|| 
|----------------------------------------0----|| 
| 
| a    +S  +S  S S S S S S  S  S S S S S S S 
|---------------------------------------------|| 
|---------------------------------------------|| 
|-7b9==(7)r(7)p5---5-6------------------------|| 
|----------------7-----7-5--------------------|| 
|---------------------------7--6-5s3-5-3------|| 
|----------------------------------------5-0--|| 
 
 
   Verses 
    $ 
    Gtrs II, III 
                              PM|                             PM| 
    E S S E     S S +S  S E E S S   E S S E     S S +S  S E E S S 
||--------------------------------|-------------------------------| 
||o-------------------------------|-------------------------------| 
||--2-x-x-------2-2-(2)-----------|-2-x-x-------2-2-(2)-----------| 
||--2-x-x-------2-2-(2)-----------|-2-x-x-------2-2-(2)-----------| 
||o-0-x-x-------0-0-(0)-0---------|-0-x-x-------0-0-(0)-0---------| 
||--------3b3.5-----------3-2-0-0-|-------3b3.5-----------3-2-0-0-| 
 
 
                            PM| 
  E S S E     S S +S  S E E S S   E S S E     S S +S  S E Q 
|-------------------------------|----------------------------| 
|-------------------------------|----------------------------| 
|-2-x-x-------2-2-(2)-----------|-2-x-x-------2-2-(2)--------| 
|-2-x-x-------2-2-(2)-----------|-2-x-x-------2-2-(2)--------| 
|-0-x-x-------0-0-(0)-0---------|-0-x-x-------0-0-(0)-0------| 
|-------3b3.5-----------3-2-0-0-|-------3b3.5-----------3-2--| 
 
 
  Q  E S S +S  S E E E   E S S E S S +S  S E E E 
|----------------------|-------------------------| 
|----------------------|-------------------------| 
|-9--7-x-9-(9)---------|-9-x-x-7-x-9-(9)---------| 
|-9--7-x-9-(9)---------|-9-x-x-7-x-9-(9)---------| 
|-7--5-x-7-(7)-5-5-4-2-|-7-x-x-5-x-7-(7)-5-5-4-2-| 
|----------------------|-------------------------| 
 
 
  E S S E S S +S  S E E E   E S S E S S +S  S E E E 
|-------------------------|-------------------------| 
|-------------------------|-------------------------| 
|-9-x-x-7-x-9-(9)---------|-9-x-x-7-x-9-(9)---------| 
|-9-x-x-7-x-9-(9)---------|-9-x-x-7-x-9-(9)---------| 
|-7-x-x-5-x-7-(7)-5-5-4-2-|-7-x-x-5-x-7-(7)-5-5-4-2-| 
|-------------------------|-------------------------| 
 
 
  Q  Q  Q  Q    Q  Q  Q  Q 
|-------------|-------------| 
|-------------|-3-----------| 
|-5-----------|-2-----------| 
|-5-----------|-0-----------| 
|-3--2--0-----|----4--2--0--| 
|----------3--|-------------| 
|-Rhy Fig 1 
 
                                                         To Coda 
  E E E S S +E  E E E   E E E S S +E  E E E   E E E S S +E  E E E 
|---------------------|---------------------|---------------------| 
|---------------------|---------------------|---------------------| 
|---------------------|---------------------|---------------------| 
|---------------------|---------------------|---------------------| 
|-7-7-5---------------|-7-7-5---------------|-7-7-5---------------| 
|---------6-(6)-5-3-0-|---------6-(6)-5-3-0-|---------6-(6)-5-3-0-| 
                              end Rhy Fig 1-| 
 
  1.                     2. 
                     Gtr II 
  E E E  E +E  E E E      E. S +E   E +Q    +Q 
|---------------------||-/7--7-(7)-----------------|| 
|--------------------o||--7--7-(7)-/7-(7)---(7)\---|| 
|---------------------||---------------------------|| 
|---------------------||---------------------------|| 
|-7-7-5--------------o||---------------------------|| 
|--------6-(6)-5-3-4--||---------------------------|| 
| 
|                    Gtr III 
| W                       E. S +E   E +E  E  E   E 
|---------------------||---------------------------|| 
|--------------------o||---------------------------|| 
|---------------------||--4--4-(4)--4-(4)-4--2---2-|| 
|---------------------||--4--4-(4)--4-(4)-4--2---2-|| 
|--------------------o||--2--2-(2)--2-(2)-2--0---0-|| 
|---------------------||---------------------------|| 
 
 
 Guitar Solo 
  Gtr I 
                      ~~~~~~~~~               ~~~                          ~~ 
  E  E  q     E  E E  E    +E   E  E E   E    Q.       E  E  q     E  E E  E 
|-----------------------|----------------------------|-----------------------| 
|-----------------------|------12------------15------|-------------x-15---15-| 
|---12s13-----x-13---13-|-(13)-12-13-x---x---15------|---12s13-----x-15---13-| 
|---11s12-----x-14---14-|-(14)----14-x---x-----------|-----------------------| 
|-----------------------|----------------------------|-----------------------| 
|-----------------------|----------------------------|-----------------------| 
| 
| Gtrs II, III 
| Q     E S S E  E E  E     Q      E S S S S  S S Q    Q     E S S E  E E  E 
|-----------------------|----------------------------|-----------------------| 
|-----------------------|----------------------------|-----------------------| 
|-------9-7-9----9-9--9-|---9------------------------|-------9-7-9----9-9--9-| 
|-------9-7-9----9-9--9-|---9------------0-0---------|-------9-7-9----9-9--9-| 
|-------7-5-7----7-7--7-|---7--------2-2-------------|-------7-5-7----7-7--7-| 
|-0-----------0---------|---------------------3p2-0--|-0-----------0---------| 
 
 
    ~~~~ 
                                    |--3--|                 |---3---| 
   +E   E  Q      E    E    E E     E  E  E      +H         E  E    E 
|-----------------x---15---15---|--------16b19==(16)r------16-18---17b19==| 
|-(15)-14s15\-----x---15---15---|-----17----------------------------------| 
|-(13)-15s16\-------------------|-/18-------------------------------------| 
|-------------------------------|-----------------------------------------| 
|-------------------------------|-----------------------------------------| 
|-------------------------------|-----------------------------------------| 
| 
|   Q      E  S S S S  S S  Q       Q             Q    E Q       E 
|-------------------------------|-----------------------------------------| 
|-------------------------------|-----------------------------------------| 
|---9---------------------------|-----------------9----7-9-------9--------| 
|---9-------------0-0-----------|-----------------9----7-9-------9--------| 
|---7---------2-2---------------|-----------------7----5-7-------7--------| 
|----------------------3p2--0---|---0-------------------------------------| 
 
 
                     ~~~~~~~~~ 
   +Q     +E   S  S  Q   +E   S  S 
|-(17)r==(17)-15-16--------------------| 
|-------------------15--(15)\---15b17==| 
|--------------------------------------| 
|--------------------------------------| 
|--------------------------------------| 
|--------------------------------------| 
| 
|  +E  E   E   E     Q    Q 
|--------------------------------------| 
|--------------------------------------| 
|--(9)-9--12--14-----9----9------------| 
|--(9)-9--12--14-----9----9------------| 
|--(7)-7--10--12-----7----7------------| 
|--------------------------------------| 
 
 
    |----3----| 
   +E    E    E  S S  S      +S   +S   S  S  S  S  S  S  S 
|----------------------------------------------------------| 
|-(15)r-15---12--------------------------------------------| 
|---------------15---14b15==(14)r(14)p12-14-12-------------| 
|----------------------------------------------14-12-------| 
|----------------------------------------------------14-13-| 
|----------------------------------------------------------| 
| 
|   E      E     E    E            E      E     E     E 
|----------------------------------------------------------| 
|----------------------------------------------------------| 
|---7------8-----9----7------------8------9-----7-----8----| 
|---7------8-----9----7------------8------9-----7-----8----| 
|---5------6-----7----5------------6------7-----5-----6----| 
|----------------------------------------------------------| 
 
 
                           D.S. al Coda 
   a      +E   +S   S  E  E   Q    Q 
|---------------------------------------|| 
|---------------------------------------|| 
|---------------------------------------|| 
|---------------------14-13-{12}--------|| 
|-12b13==(12)r(12)----------------12\---|| 
|------------------15-------------------|| 
| 
|          E    E      E  E  +Q   +Q 
|---------------------------------------|| 
|---------------------------------------|| 
|----------9----7------8--9--(9)--(9)\--|| 
|----------9----7------8--9--(9)--(9)\--|| 
|----------7----5------6--7--(7)--(7)\--|| 
|---------------------------------------|| 
 
 
                       Bridge 
  & 
  Gtr II 
  E. S E E +E  E E E     H.       Q     H.       Q 
|--------------------||--------------|--------------| 
|--------------------||--------------|--------------| 
|--------------------||--7-------10--|-12-------10--| 
|--------------------||--7-------10--|-12-------10--| 
|-7--7-5-------------||--5--------8--|-10--------8--| 
|--------6-(6)-5-3-0-||--------------|--------------| 
| 
| Gtr III            Gtr IV 
| E. S E E +E  E E E     W              W 
|--------------------||-^2-----------|-^3-----------| 
|--------------------||-^3-----------|-^3-----------| 
|--------------------||-^2-----------|-^0-----------| 
|--------------------||-^0-----------|-^0-----------| 
|-7--7-5-------------||--------------|--------------| 
|--------6-(6)-5-3-0-||--------------|-^3-----------| 
 
 
   Q.   E E E  q     Q.    E  E  a  E  q      H.          Q 
|-----------------|------------------------|-----------------| 
|-------8p7-------|-------13p12------------|-----------------| 
|--7----------10--|-12----------------10---|--7----------10--| 
|--7--------7-10--|-12----------12s10-10---|--7----------10--| 
|--5-----------8--|-10-----------------8---|--5-----------8--| 
|-----------------|------------------------|-----------------| 
| 
|  W                 W                        W 
|-^2--------------|-^3---------------------|-^2--------------| 
|-^3--------------|-^3---------------------|-^3--------------| 
|-^2--------------|-^0---------------------|-^2--------------| 
|-^0--------------|-^0---------------------|-^0--------------| 
|-----------------|------------------------|-----------------| 
|-----------------|-^3---------------------|-----------------| 
| 
| Gtr V 
|  W                 H        Q        E E    E  E H. 
|-----------------|------------------------|-----------------| 
|-----------------|----------------------8-|--7--------------| 
|-----------------|------------------------|-----7-----------| 
|-----------------|------------------------|-------7---------| 
|-----------------|------------------------|-----------------| 
|-----------------|------------------------|-----------------| 
 
 
   Q.    E  E  a  E  q     H.      q 
|-----------------------|-------------| 
|-------13p12-----------|-------------| 
|-12----------------10--|--7-------7--| 
|-12----------12s10-10--|--7-------7--| 
|-10-----------------8--|--5-------5--| 
|-----------------------|-------------| 
| 
|  W                       W 
|-^3--------------------|-^2----------| 
|-^3--------------------|-^3----------| 
|-^0--------------------|-^2----------| 
|-^0--------------------|-^0----------| 
|-----------------------|-------------| 
|-^3--------------------|-------------| 
 
 
  Gtr II 
   E  E  E  E  q   q     E  E  E  S  S  q    q 
|---------------------|-------------------------| 
|-12-12-12-12-12--10--|-12-12-12-12-12-12---10--| 
|-12-12-12-12-12--10--|-12-12-12-12-12-12---10--| 
|-12-12-12-12-12--10--|-12-12-12-12-12-12---10--| 
|---------------------|-------------------------| 
|---------------------|-------------------------| 
| 
| Gtr III 
|  E  E  E  E  q   q     E  E  E  S  S  E E  Q 
|---------------------|-------------------------| 
|---------------------|-------------------------| 
|---------------------|-------------------------| 
|--5--5--5--5--5---3--|--5--5--5--5--5--5s6--3--| 
|--5--5--5--5--5---3--|--5--5--5--5--5--5s6--3--| 
|--3--3--3--3--3---1--|--3--3--3--3--3--3s8--1--| 
 
 
   E  E  E  E  q   Q     E  E  E  E  E  E  Q 
|---------------------|------------------------|| 
|-12-12-12-12-12--10--|-14-14-14-14-14-14-14\--|| 
|-12-12-12-12-12--10--|-14-14-14-14-14-14-14\--|| 
|-12-12-12-12-12--10--|-14-14-14-14-14-14-14\--|| 
|---------------------|------------------------|| 
|---------------------|------------------------|| 
| 
|  E  E  E  E  q   q     E  E  E  E  E  E  Q 
|---------------------|------------------------|| 
|---------------------|------------------------|| 
|---------------------|------------------------|| 
|--5--5--5--5--5---3--|--7--7--7--7--7--7--7---|| 
|--5--5--5--5--5---3--|--7--7--7--7--7--7--7---|| 
|--3--3--3--3--3---1--|--5--5--5--5--5--5--5---|| 
 
 
  Gtr I 
   a       H         +E    a       E   +S    a       E. 
|---------12--------(12)----------12--(12)----------12-----| 
|-15b17==(15)-------(15)r-15b17==(15)-(15)r-15b17==(15)r---| 
|----------------------------------------------------------| 
|----------------------------------------------------------| 
|----------------------------------------------------------| 
|----------------------------------------------------------| 
| 
| Gtrs II, III 
|          PM     PM|                   PM 
|          E  E E E   E            E    E                E 
|----------------------------------------------------------| 
|----------------------------------------------------------| 
|-------------6-7------------------9---------------------9-| 
|-------------6-7------------------9---------------------9-| 
|-------------4-5------------------7---------------------7-| 
|----------0------0---0-----------------0------------------| 
 
 
   a       H          H 
|---------12---------12----------| 
|-15b17==(15)r-------------------| 
|--------------------------------| 
|--------------------------------| 
|--------------------------------| 
|--------------------------------| 
| 
|          PM      PM| 
|          E   E E E  E  E  E  E 
|--------------------------------| 
|--------------------------------| 
|--------------6-7------12-11-12-| 
|--------------6-7------12-11-12-| 
|--------------4-5------10--9-10-| 
|----------0-------0--0----------| 
 
 
                                                    ~~~~~~~ 
   E  E  E  E  E  E      +E   E    a      +Q.       E  +Q    Q 
|-------12-12-------------------|---------------------------------|| 
|----12-------15----------------|-15b17==(15)r-----15-(15)--------|| 
|-15-------------14pb15r(14)-12-|---------------------------------|| 
|-------------------------------|---------------------------------|| 
|-------------------------------|---------------------------------|| 
|-------------------------------|----------------------------9\---|| 
| 
|  PM       PM|           PM               PM       PM| 
|  E  E  E  E  E  E       E   E            E   E E  E   E  E E  E 
|-------------------------------|---------------------------------|| 
|-------------------------------|---------------------------------|| 
|-----6--7--------9-----------9-|--------------6-7---------9-9--9-|| 
|-----6--7--------9-----------9-|--------------6-7---------9-9--9-|| 
|-----4--5--------7-----------7-|--------------4-5---------7-7--7-|| 
|--0--------0--0----------0-----|----------0--------0---0---------|| 
 
 
 Guitar Solo 
                          ~~~~~~~~~                  ~~~ 
  a H     E  E a     +E  +E    +H      a  E E E      E 
|----------------------------|-------------------------| 
|----------------------------|-------------------------| 
|----------------------------|-------------------------| 
|----------------------------|--------------9-9b9.5-11-| 
|---------7----9b11==(9)r(9)-|-(9)-----9s11------------| 
|-7h9--------9---------------|-------------------------| 
| 
|                                    PM 
|   H    +E  E        E   E    +Q.   E    E E E      E 
|----------------------------|-------------------------| 
|----------------------------|-------------------------| 
|----------------------------|-------------------------| 
|---6----(6)-6------------4--|-(4)--------4-3-4------5-| 
|---4----(4)-4------------2--|-(2)---0----2-1-2------3-| 
|----------------------------|-------------------------| 
 
 
 ~~~~~~                        ~~~~ 
   +H      E   E  a      +E   +E 
|---------------------------------| 
|---------------------------------| 
|----------9-----11b13==(11)r(11)-| 
|-(11)--------11------------------| 
|---------------------------------| 
|---------------------------------| 
| 
|   H     +E   E          E    E 
|---------------------------------| 
|---------------------------------| 
|---------------------------------| 
|---6-----(6)--6---------------4--| 
|---4-----(4)--4---------------2--| 
|---------------------------------| 
 
 
    ~~~~                                   ~~~~ 
   +H       S      +S  E     +E    a       E 
|---------------------------------------------| 
|-----------------------------------------12--| 
|-(11)-----11pb13r(11)p9b10==(9)r-11b13==(11)-| 
|---------------------------------------------| 
|---------------------------------------------| 
|---------------------------------------------| 
| 
|        PM 
|  +Q.   E  E          E      E            E 
|---------------------------------------------| 
|---------------------------------------------| 
|---------------------------------------------| 
|--(4)------4----------3------4------------5--| 
|--(2)---0--2----------1------2------------3--| 
|---------------------------------------------| 
 
 
 ~~~~~~                 ~~~~~~~~ 
   +H      E   +S  S  E E   +Q   +E  E E E E     E 
|-------------------------|----------------------0-| 
|-(12)----12--------------|--------------5-------5-| 
|-(11)----11r=(11)-9------|------------6---6-------| 
|--------------------11-9-|-(9)--(9)s6-------------| 
|-------------------------|------------------------| 
|-------------------------|------------------------| 
| 
|   H     +E    E     E E   +H         E E E     E 
|-------------------------|------------------------| 
|-------------------------|------------------------| 
|-------------------------|------------------------| 
|---6-----(6)---6-------4-|-(4)--------4-----------| 
|---4-----(4)---4-------2-|-(2)--------2-0-------2-| 
|-------------------------|----------------3b3.5-0-| 
 
 
  +Q   Q   Q   Q     a    +S  +E    S E E Q       E  E   +E  E E E Q   E E 
|-(0)--0---0---0---|-----------------------------------|-------------------| 
|-(5)--3---2---0---|-2b3==(2)r(2)---0-2-0------------0-|-(0)-0-0-0-0-------| 
|------------------|-2b3==(2)r(2)---0-2-0h1-------2-/4-|-(4)-4-2-2-1---4-4-| 
|------------------|-----------------------------------|---------------4-4-| 
|------------------|-----------------------------------|-------------------| 
|------------------|-----------------------------------|-------------------| 
| 
|      PM|   PM 
| +Q   E E E E E E         E      E   E E E E     E  E   +E  E E E E E E E 
|------------------|-----------------------------------|-------------------| 
|------------------|-----------------------------------|-------------------| 
|------------------|---------------------------------4-|-(4)-4-4-4-4-4-4-4-| 
|----------2-------|---------------------------------4-|-(4)-4-4-4-4-4-4-4-| 
|-(2)------2---4-2-|-------2------2---4-2---------0--2-|-(2)-2-2-2-2-2-2-2-| 
|-(0)--0-0-0-0-0-0-|-------0------0---0-0-3-4b4.5------|-------------------| 
 
 
  a    +S  +E    S E a E +Q     E      a      +E 
|-------------------------------------------------| 
|-------------------------------------15b17==(15)-| 
|-------------------------------------------------| 
|-2b3==(2)r(2)p==0-2-0h1-(1)/---------------------| 
|-------------------------------------------------| 
|-------------------------------------------------| 
| 
|       E      E   E   E  E   E E              E 
|-------------------------------------------------| 
|-------------------------------------------------| 
|-------4------4---4------------------------------| 
|-------4------4---4------------------------------| 
|-------2------2---2---0--2---0----------------2--| 
|-------------------------------3b3.5----------0--| 
 
 
                                    ~~ 
   +Q    +S    E.    a      +Q      Q 
|---------------------------------------| 
|-(15)--(15)r-15------------------------| 
|-------------------14b16==(14)r---14---| 
|---------------------------------------| 
|---------------------------------------| 
|---------------------------------------| 
| 
|         PM------| 
|  +Q     E       E          E   E  E E 
|---------------------------------------| 
|---------------------------------------| 
|----------------------------2---2--4-2-| 
|----------------------------2---2--4-2-| 
|--(2)----------------------------------| 
|--(0)----0-------0---------------------| 
 
 
   S      +S   S  S  S  S   S   S  +Q       E a    +E 
|------------------------------------------------------| 
|--------------------------14s=12-(12)-----------------| 
|-14pb15r(14)p12------------------------------6b7==(6)-| 
|----------------14s12s14-(14)s12-(12)-----------------| 
|------------------------------------------------------| 
|------------------------------------------------------| 
| 
|              PM---------| 
| +E           E     E      E       E     E E       E 
|------------------------------------------------------| 
|------------------------------------------------------| 
|-(2)-----------------------------------------------4--| 
|-(2)-----------------------------------------------4--| 
|-------------------------------------------0-------2--| 
|--------------0-----0------0-------3b3.5-4------------| 
 
 
  +E  +E  E E     +E  E E a    +E 
|----------------------------------| 
|----------------------------------| 
|-(6)r(6)-4------------------------| 
|-----------6pb7==(6)r6-4----------| 
|-------------------------4b5==(4)-| 
|----------------------------------| 
| 
|         PM 
| +Q      Q        E  E E       E 
|----------------------------------| 
|----------------------------------| 
|-(4)------------------------------| 
|-(4)--------------4--4-4-------4--| 
|-(2)-----2--------2--2-2-------2--| 
|----------------------------------| 
 
 
  +E  +E  E E    +E  +E  Q    W                 W 
|---------------------------|-----------------|----------------|| 
|---------------------------|-----------------|----------------|| 
|---------------------------|-----------------|----------------|| 
|---------------------------|-----------------|----------------|| 
|-(4)r(4)-2-----------------|-----------------|----------------|| 
|-----------4b5==(4)r(4)-0--|-0---------------|-0--------------|| 
| 
|                             PM----| 
|  E   E  E E     q      q    E E E E E E E E   E E E E E E Q 
|---------------------------|-----------------|----------------|| 
|---------------------------|-----------------|----------------|| 
|------------------------2--|-----------------|----------------|| 
|--4---4--6-6-----4------2--|-----------------|----------------|| 
|--2---2--2-2-----2---------|---------4-4-4-4-|-4-4-4-4-4-4-4--|| 
|---------------------------|-0-2-2-2-2-2-2-2-|-2-2-2-2-2-2-2--|| 
 
 
                 * Gtr I sloly slides down from approx 31st fret 
  W           E  Q.   H        E  E  Q    H             W 
|----------|----------------|-----------------------|------*---| 
|----------|----------------|-----------------------|----------| 
|----------|----------------|-----------------------|----------| 
|----------|----------------|-----x/----------------|----------| 
|----------|-----9s==12/----|-----x/----------------|----------| 
|----------|-----9s==12/----|-----------------------|----------| 
| 
|                           Gtr II 
| W          +W                H         +Q.     E     +W 
|----------|----------------|--------()----|-()-----|----------| 
|----------|----------------|--------()----|-()-----|----------| 
|-4--------|-(4)------------|--------()----|-()-----|----------| 
|-4--------|-(4)------------|--------()----|-()-----|----------| 
|-2--------|-(2)------------|--------()----|-()-----|----------| 
|----------|----------------|--------()----|--------|----------| 
 
 
  Gtr II 
                 ~~ 
  H    Q  E E    H      +Q    E S S 
|-------------|---------------------| 
|-------------|---------------------| 
|-------------|-----------------x-x-| 
|-------------|-----------------x-x-| 
|-------------|-----------------x-x-| 
|-----------5s|=12-----(12)\--------| 
| 
| Gtr III 
| W              Q  Q    Q    Q 
|-------------|---------------------| 
|-------------|---------------------| 
|-------------|-----x---------x-----| 
|-------------|-----x---------x-----| 
|-------------|---------------------| 
|-------------|---------------------| 
 
 
  a    +S  +E    S S E.     +Q         Q 
|----------------------------------------------| 
|-2b3==(2)r(2)---------------------------------| 
|-2b3==(2)r(2)---0-0---------------------------| 
|--------------------2------(2)/---------------| 
|----------------------------------------------| 
|----------------------------------------------| 
| 
|       PM-----------------------------------| 
|       S   S  S S S S  S S  S   S S S S S S S 
|----------------------------------------------| 
|----------------------------------------------| 
|----------------------------------------------| 
|----------------------------------------------| 
|-------7---7--7-7-6-6--6-5--5---5-4-4-3-3-2-2-| 
|----------------------------------------------| 
 
 
   a       Q          a       H                 Q 
|-------------------------------------------------------| 
|---------12-----------------12-------------------------| 
|-14b16==(14)r-------14b16==(14)r-----------------------| 
|-------------------------------------------------------| 
|-------------------------------------------------------| 
|-------------------------------------------------------| 
| 
|          PM-------------------------------------------- 
|          S   S S S          S   S S S S S S S S S S S 
|-------------------------------------------------------| 
|-------------------------------------------------------| 
|-------------------------------------------------------| 
|-------------------------------------------------------| 
|----------7---7-7-7----------6---6-6-5-5-5-4-4-3-3-2-2-| 
|-------------------------------------------------------| 
 
 
  W                                  a       Q          a       H                 Q 
|---------------------------------|---------12-----------------12-------------------------| 
|---------------------------------|-15b17==(15)r-------15b17==(15)r-----------------------| 
|---------------------------------|-------------------------------------------------------| 
|---------------------------------|-------------------------------------------------------| 
|---------------------------------|-------------------------------------------------------| 
|---------------------------------|-------------------------------------------------------| 
| 
|---------------------------------------------------------------------------------------| 
| S S S S S S S S S S S S S S S S            S   S S S          S   S S S S S S S S S S S 
|---------------------------------|-------------------------------------------------------| 
|---------------------------------|-------------------------------------------------------| 
|---------------------------------|-------------------------------------------------------| 
|-5-5-5-5-4-4-4-3-3-3-2-2-1-1-0-0-|----------5---5-5-5----------4---4-4-3-3-3-2-2-1-1-0-0-| 
|-7-7-7-7-6-6-6-5-5-5-4-4-3-3-2-2-|----------7---7-7-7----------6---6-6-5-5-5-4-4-3-3-2-2-| 
|---------------------------------|-------------------------------------------------------| 
 
 
    Gtr III 
    PM--------------------------------------------------------------| 
    S S S S S S S S S S S S S S S S   S S S S S S S S S S S S S S S S 
||----------------------------------|-----------------------------------|| 
||o---------------------------------|----------------------------------o|| 
||----------------------------------|-----------------------------------|| 
||--6-6-6-6-5-5-5-4-4-4-3-3-2-2-1-1-|-6-6-6-6-5-5-5-4-4-4-3-3-2-2-1-1---|| 
||o-7-7-7-7-6-6-6-5-5-5-4-4-3-3-2-2-|-7-7-7-7-6-6-6-5-5-5-4-4-3-3-2-2--o|| 
||----------------------------------|-----------------------------------|| 
 
 
  Gtrs II, III 
           ~ 
  Q  Q  Q  Q    Q  Q  Q  E E 
|-------------|--------------|| 
|-------------|--------------|| 
|-------------|--------------|| 
|-------------|--------------|| 
|-4--3--4-----|-7--6--7--8---|| 
|-2--1--2--3--|-5--4--5--6-0-|| 
 
 
   Out-Chorus 
    Rhy Fig 1 x3.5 
 
 
 
  E. S +E  E +S  E. E E   E. S +E  E Q  Q    +W 
|-----------------------|------------------|---------*| 
|-9--7-(7)--------------|---------------8--|-(8)-----*| 
|-9--7-(7)--------------|-6--4-(4)-1----7--|-(7)-----*| 
|-9--7-(7)-8-(8)-7--5-2-|-7--5-(5)-2----6--|-(6)-----*| 
|-7--5-(5)-8-(8)-7--5-2-|-7--5-(5)-2----7--|-(7)-----*| 
|----------6-(6)-5--3-0-|-5--3-(3)-0----0--|-(0)\----*| 

	  

Search Paypal
auto scroll beats size up size down change color hide chords drawings
tab show chords e-chords YouTube Clip e-chords hide all tabs e-chords go to top tab

share with facebook