Guns N' Roses

home > Guns N' Roses

Star Wars Theme Tab

Guns N' Roses

Difficulty: EasyEasy

tuner correct add songbook print version text version save to e-mail
chordsukulelecavacokeyboardtabbassdrumsharmonicsflute Guitar Pro
chords

Star Wars Theme

  		  
Buckethead - Star Wars Theme (Leeds 2002)  

  
Standard Tuning  
  
e|-------------------------------------------------------------------------------------------------------|  
B|-----------------8~~------------8~~-----------------------------------8~~-----------8~~----------------|  
G|-------7~~-5-4--------7~~-5-4-------7~~-5-4-5---------------7~~-5-4-------7~~-5-4-------7~~-5-4-5------|  
D|---5~~---------7--------------7---------------7~~---5-5-5-5---------7-------------7---------------7----|  
A|-------------------------------------------------------------------------------------------------------|  
E|-------------------------------------------------------------------------------------------------------|  
  
e|--------------------------------------------------------------------------------------------------------------|  
B|--------------------------------------------------------------------------------------------------------------|  
G|-------------5----------------------------7-5~~--------------------5----7~~-----------7-----------------------|  
D|----5~~--7-8---8----------5---7-8-5--8-5----------------5~~--7-8-5---5----------8-7-5----8-7-5----------------|  
A|--5----------------5~~--5-------------------------5-5-5-----------------------5-------------------------------|  
E|-----------------------------------------------------------------------------------------------5~~-4~~-2~~----|  



	  

Search Paypal
auto scroll beats size up size down change color hide chords drawings
tab show chords e-chords YouTube Clip e-chords hide all tabs e-chords go to top tab