Guns N' Roses

home > Guns N' Roses

Pretty tied up Tab

Guns N' Roses

Difficulty: BeginnerBeginner

by %5Fslash%5Frose%5F

tuner correct add songbook print version text version save to e-mail
chordsukulelecavacokeyboardtabbassdrummharmonicsflute Guitar Pro
chords

Pretty tied up

Year: 1991 - Album: Use Your Illusion II

(Stradlin)

  		|-------------------------| 
|-----2-3-5-3-2-2h3-2-----| 
|-0/3-----------------3-2-| 
|-------------------------| 
|-------------------------| 
|-------------------------| 
 
|------------------------------------------------------------------------------------------| 
|------------------------------------------------------------------------------------------| 
|-1h2---------1h2----------------1h2---------1h2-------------1h2---------1h2---------------| 
|---0--0-0-0----0--0-0-0--0-0-0----0--0-0-0----0--0--0--0--0---0--0-0-0----0--0-0-0--0-0-0-| 
|------------------------------------------------------------------------------------------| 
|------------------------------------------------------------------------------------------| 
 
|---------| 
|---------| 
|---2h3p2-| 
|---0-----| 
|---------| 
|---------| 
 
|-------------------------------|----------------------------------|---| 
|-------------------------------|----------------------------------|---| 
|--1h2---------1h2--------------|-1h2------------1h2---------------|-%-| 
|----0--0-0-0----0--0--0--0--0--|---0--0-0-0-0-----0--0--0--0--0-0-|---| 
|-------------------------------|----------------------------------|---| 
|-------------------------------|----------------------------------|---| 
 
|--------------------------------------------------------------------------------| 
|--------------------------------------------------------------------------------| 
|--------------------------------------------------------------------------------| 
|-0--0-0-0-0-0--0-0-0--0--0-0--0-0-0--0--0--0--0--0--0-0--0-0-0-0-0-0------------| 
|----------------------------------------------------------------------0-3-4-5~~-| 
|--------------------------------------------------------------------------------| 
 
Chorus: 
        
        A     C   D5            C5   G5      A5        C5  D5 
she's pretty tied up hangin' upside down she's pretty tied up and you 
 
C5   G5     A5             C5  D5           C5   G5    E        
can ride her she's pretty tied up hangin upside down    ooh   i can't  
 
 G5                     D5 
tell you she's the right one 
 
  Guitar Solo: 
|----------------10---------------------10------------------10------------| 
|-13fb--------------13p10-13----(13)fb-----13p10-13p10-13fb----13p10-13fb-| 
|-------------------------------------------------------------------------| 
|-------------------------------------------------------------------------| 
|-------------------------------------------------------------------------| 
|-------------------------------------------------------------------------| 
 
|-10--------------10-------13-----------10--------------------------------| 
|----13p10-13fb------13p10----13fb~~~~~----13p10h12hb---rp10--------------| 
|-------------------------------------------------------------------------| 
|---------------------------------------------------------------12--12~~~-| 
|-------------------------------------------------------------------------| 
|-------------------------------------------------------------------------| 
 
|-----------------------12hb--12~~~~-10-12-13fb--13-12-13-10h13p10----10-| 
|-10-12-12hb--12----10---------------------------------------------13----| 
|-10-12-12fb--12----10---------------------------------------------------| 
|----------------12------------------------------------------------------| 
|------------------------------------------------------------------------| 
|------------------------------------------------------------------------| 
 
|-------13-1515fb-15fb-15fb-15fb-15fb-15fbrp13-15-15fb-13hb--15-13-15fbrp13-| 
|-13/15-12------------------------------------------------------------------| 
|---------------------------------------------------------------------------| 
|---------------------------------------------------------------------------| 
|---------------------------------------------------------------------------| 
|---------------------------------------------------------------------------| 
 
|-15-15fb-13------------------19-(19)hb-19~~-15-17-19-17h19p17p15-------| 
|------------15-15~~-15~~~-15-------------------------------------18~~~-| 
|-----------------------------------------------------------------------| 
|-----------------------------------------------------------------------| 
|-----------------------------------------------------------------------| 
|-----------------------------------------------------------------------| 
 
|-10-13p12p10----12----10h12p10----10-------10-----------------------| 
|-------------13----13----------13----12h13----13p12p10--------------| 
|-------------------------------------------------------12/\/\/\/\/\-| 
|--------------------------------------------------------------------| 
|--------------------------------------------------------------------| 
|--------------------------------------------------------------------| 
 
|--------------------------12hb---r~~~~~~~~~~~~~~~~~~~~~~~-12fb--10~~~~-15\---| 
|-10-----------------------------------------------------------------------\--| 
|----12/\/\(12)p10-12-10------------------------------------------------------| 
|-----------------------------------------------------------------------------| 
|-----------------------------------------------------------------------------| 
|-----------------------------------------------------------------------------| 
	  

Full key step upFull key step up
Half key step upHalf key step up
Half key step downHalf key step down
Full key step downFull key step down
Search Paypal
auto scroll beats size up size down change color hide chords drawings
tab show chords e-chords YouTube Clip e-chords hide all tabs e-chords go to top tab