Guns N' Roses

home > Guns N' Roses

Patience (ver. Luau) Tab

Guns N' Roses

Difficulty: AdvancedAdvanced

by Acelot

tuner correct add songbook print version text version save to e-mail
chordsukulelecavacokeyboardtabbassdrumsharmonicsflute Guitar Pro
chords

Patience (ver. Luau)

  		

Viol„o 1 

Solo intro  

 eb|------------10-----------7-8-9-10------------------7/8/9-----| 
 Bb|----8---10b----10r-8-10b----------10b-8---10---10------------| 
 Gb|-7-------------------------------------------9-----7/8/9-----| 
 Db|-------------------------------------------------------------| 
 Ab|-------------------------------------------------------------| 
 Eb|-------------------------------------------------------------| 

 eb|----10---8----7-----7\5--------------------------------------| 
 Bb|----------------8--------------------------------------------| 
 Gb|-/11---9----7-----7-7\5--------------------------------------| 
 Db|-------------------------------------------------------------| 
 Ab|-------------------------------------------------------------| 
 Eb|-------------------------------------------------------------| 


Solo 2 



 eb|-8p7-8-8-10-8-7--------8p7-8-8-10-8-10/12--8p7-8-8-10-8-7----| 
 Bb|----------------10-8-8------------------------------------10-| 
 Gb|-------------------------------------------------------------| 
 Db|-------------------------------------------------------------| 
 Ab|-------------------------------------------------------------| 
 Eb|-------------------------------------------------------------| 

 eb|-----10/12-10-10-12/14-12-10-10------0-3---------------------| 
 Bb|-8-8------------------------------/5-----5p3-1h3----0-3------| 
 Gb|-------------------------------------------------/4-----4\2--| 
 Db|-------------------------------------------------------------| 
 Ab|-------------------------------------------------------------| 
 Eb|-------------------------------------------------------------| 

 eb|------0-3----------3-5b-3---3-5-5b-5-3-5-3-5b-3-5-3-5-3-5/7--| 
 Bb|---/5-----5p3-1-/5--------5----------------------------------| 
 Gb|-0-----------------------------------------------------------| 
 Db|-------------------------------------------------------------| 
 Ab|-------------------------------------------------------------| 
 Eb|-------------------------------------------------------------| 

 eb|-5-5---------------------------------------------------------| 
 Bb|-------/5-3---------------7b-5-------------------------------| 
 Gb|------------4p2-----2----------4p2-----2---------------------| 
 Db|----------------2h4---0------------2h4---0-------------------| 
 Ab|-------------------------------------------------------------| 
 Eb|-------------------------------------------------------------| 


Viol„o 2 

intro viol„o 2 

 eb|--0-0-------------------------3-3----------------------------| 
 Bb|--1---1------3p1---0h1--------3---3-----1p0------------------| 
 Gb|--0-----0--------------0------0-----0-------0-2-----0--------| 
 Db|--2-------2--------------2----0-------0---------0-2----------| 
 Ab|--3--------------3---------3--2------------------------------| 
 Eb|------------------------------3------------------------------| 




 eb|-------------------------------2------2----3p2---0h2------0--| 
 Bb|-------0-2----3-----2-----0------3------3------------3----1--| 
 Gb|---2-------2----------2-----2---------------------------2-0--| 
 Db|-----2-------2--2-------2-----0----0------0----0----------2--| 
 Ab|-0----------------0---------------------------------------3--| 
 Eb|-------------------------------------------------------------| 



 eb|--14-14-14/12-12-12-12/10-10-10-10/9-9/7-7/5-5/7-7-----------| 
 Bb|-------------------------------------------------------------| 
 Gb|--14-14-14/12-12-12-12/11-11-11-11/9-9/7-7/5-5/7-7-----------| 
 Db|-------------------------------------------------------------| 
 Ab|-------------------------------------------------------------| 
 Eb|-------------------------------------------------------------| 




 eb|-------------------------------------------------------------| 
 Bb|-------------------------------------------------------------| 
 Gb|--11h12-11---------------------------------------------------| 
 Db|-----------14-12---------------------------------------------| 
 Ab|-------------------------------------------------------------| 
 Eb|-------------------------------------------------------------| 




 eb|--2-3-2--------------2---------------------------------------| 
 Bb|--3-----3------------3---------------------------------------| 
 Gb|--2-------2-0--------2---------------------------------------| 
 Db|--0------------4-2-0-0---------------------------------------| 
 Ab|-------------------------------------------------------------| 
 Eb|-------------------------------------------------------------| 



 eb|--14-15-14-------------------14------------------------------| 
 Bb|--15-------15----------------15------------------------------| 
 Gb|--14----------14-12----------14------------------------------| 
 Db|--0-----------------16-14-12-0-------------------------------| 
 Ab|-------------------------------------------------------------| 
 Eb|-------------------------------------------------------------| 
	  

Search Paypal
auto scroll beats size up size down change color hide chords drawings
tab show chords e-chords YouTube Clip e-chords hide all tabs e-chords go to top tab