Guns N' Roses

home > Guns N' Roses

Crash Diet Tab

Guns N' Roses

Difficulty: nolevelnolevel

tuner correct add songbook print version text version save to e-mail
chordsukulelecavacokeyboardtabbassdrumsharmonicsflute Guitar Pro
chords

Crash Diet

  		Esta é a tablatura de Crash Diet, música que não foi lançada em nenhum álbum, portanto, essa tab é rara.

Tabbed by: Jeff Hamon
Main verse riff

x---------------------------------------------------------------
x---------------------------------------------------------------
x---------0-------------0------------0-------------0----------
x-----4-----4--------4---4-------2----2--------2---2--------
x--7-----------7--5---------5-4----------4--3---------3/7--
x---------------------------------------------------------------

chorus riff
x-------------------------------------------------------|-------|-
x-------------------------------------------------------|-------|-
x-------9------------------------------------------7---|-------|----
x-------9---9--10----5-----10----10/-9---5----7--|---7---|-------------------
x-------7---9--10----5-----10----10/-9---5----5--|---7---|-----------------------
x-0-0------7---8-----3------8-----8/--7---3--------|---9---|----------------------
   PM                                                                    PM and repeat a few times just at end of chorus

Beginning of solo                                                              SUPER FAST
x-12---------14-----------15----------12----------- 10---------12^14^15^14^12-------------------------------21^~~
x-15^~~~ --17^~~~ ----18^~~~ --15^^~~~----13^~~~ ---------------------------15^~~---15/12/15/12--------
x------------------------------------------------------------------------------------------------------------------------------
x------------------------------------------------------------------------------------------------------------------------------
x------------------------------------------------------------------------------------------------------------------------------
x------------------------------------------------------------------------------------------------------------------------------

 That's all I have for now. I will try to get more later. 
Anyone please help correct or add more.
	  

Search Paypal
auto scroll beats size up size down change color hide chords drawings
tab show chords e-chords YouTube Clip e-chords hide all tabs e-chords go to top tab