Grupo Disfarce

22 Minutos

Grupo Disfarce

tabs

by  TAMAMOREIRA

save to print version add songbook text version e-mail correct tuner
chordsukulelecavacokeyboardtabbassdrumsharmonicaflute Guitar Pro
close

there isn't a video lesson for this song

chords

22 Minutos

	  		
Dm7      Dm7/C      G/B 
E|---------------------------3/5--3-| 
B|-3--5--6--6--5--3--1--3--3--------| 
G|----------------------------------| 
D|----------------------------------| 
A|-------5-----3--2--0--2-----------| 
E|----------------------------------| 

         Dm7      Dm7/C      G/B 
E|---------------------------3--| 
B|-3--5--6--6--5--3--1--3--3---3| 
G|------------------------------| 
D|------------------------------| 
A|-------5-----3--2--0--2-------| 
E|------------------------------| 

         C         G/B         F            F      C/E     Dm7 
E|------------------------| 
B|-1--3--5--5--3--1--0--1-| 
G|------------------------| 
D|----------------0-----3-| 
A|-0--2--3--3--2----------| 
E|------------------------| 

Dm7               G7/4       G7                     C7+ 
  22 minutos e um choro atrás,era meu, só meu, seu coração, 

           G/B     A7    
Mas você terminou      

E|------------| 
B|--2---3---5-| 
G|------------| 
D|------------| 
A|--0---2---4-| 
E|------------| 

     Dm7 
Acendeu as luzes sem falar 
            G7/4                    G7 
me olhou de lado e pediu pra eu sentar 
             C7+        G/B               Em7/5-       A7 
Disse que eu ia ficar bem, que encontraria outro alguém 
              Dm7                   G7/4                               G7 
Me deixou sem ar, sem paz,sem chão,fez eu desligar o rádio com nossa canção. 
          C7+              G/B           Em7/5-      A 
Virou as costas, disse tchau, como se fosse tão normal 

           Bb7+                      G      
22 minutos e eu fiquei sentado aqui      

E|----3/5--3---------| 
B|--3---------3/5--3-| 
D|-------------------| 
A|-------------------| 
E|-------------------| 

              Bb7+           F/A            G7/4      G7 
 Preciso entender, não posso  te  deixar partiiiiiiiiiir 
               C7+                          Em7 
Por que não explica, o motivo de estar tão fria? 
                          Dm7                             F7           F/G 
Você sabe bem que a minha vida não vai fazer sentido sem você perto de mim 
                C7+                         Em7 
Porque você complica? Veja nossa cama tão vazia 
                               Dm7 
Não quero te perder nem por um dia 
                        F7          F/G 
Estenda sua mão e vem viver o nosso amor 
		  

Full key step upFull key step up
Half key step upHalf key step up
Half key step downHalf key step down
Full key step downFull key step down
hide glossary

See also:

tabs Alô Som - Supera tabs Zeca Pagodinho - Quando eu contá iaiá tabs Zeca Pagodinho - O Feijão da Dona Neném tabs Paulinho Nogueira - Bachianinha Nº1 tabs Zequinha de Abreu - Tico-Tico No Fubá tabs Grupo Revelação - A Pureza da Flor
e-chords

Other versions:

tabs Grupo Disfarce - 22 Minutos
auto scroll beats size up size down change color hide chords drawings
tab show chords e-chords YouTube Clip e-chords hide all tabs e-chords go to top tab

share