Green Day

Stab You In The Heart Tab

Green Day

Difficulty: nolevelnolevel

by LINEKERS

tuner correct add songbook print version text version save to e-mail
chordsukulelecavacokeyboardtabbassdrumsharmonicsflute Guitar Pro
close

there isn't a video lesson for this song

request
chords

Stab You In The Heart

  		verse 1 

e|---------------------------------------------------------------------------| 
B|---------------------------------------------------------------------------| 
G|-9\----9\-------9\--------9--9--9--9---------------------------------------| 
D|-9\----9\-------9\--------9--9--9--9---------------------------------------| 
A|-7\----7\-------7\--------7--7--7--7---------------------------------------| 
E|---------------------------------------------------------------------------| 


Chorus 

e|---------------------------------------------------------------------------| 
B|---------------------------------------------------------------------------| 
G|---------------------------------------------------------------------------| 
D|-------0-2-2-4-2--------0-2-2-4-2-------------------------0-2-2-4-2--------| 
A|-0-0-4------------0-0-4------------------0-2-2-4-2--0-0-4------------------| 
E|-----------------------------------0-0-4-----------------------------------| 

e|---------------------------------------------------------------------------| 
B|---------------------------------------------------------------------------| 
G|------------2-2-2--4--2-2-2--4--2-2-2--4-----------------------------------| 
D|-------0-2--2-2-2--4--2-2-2--4--2-2-2--4-----------------------------------| 
A|-0-0-4------0-0-0--2--0-0-0--2--0-0-0--2-----------------------------------| 
E|---------------------------------------------------------------------------| 


verse 2 

e|---------------------------------------------------------------------------| 
B|---------------------------------------------------------------------------| 
G|-7-7-7--9--------9/12/14\7/9\7--------9/12/14\7/9\7------------------------| 
D|-7-7-7--9--------9/12/14\7/9\7--------9/12/14\7/9\7------------------------| 
A|-5-5-5--7--------7/10/12\5/7\5--------7/10/12\5/7\5------------------------| 
E|---------------------------------------------------------------------------| 


Chorus 

e|---------------------------------------------------------------------------| 
B|---------------------------------------------------------------------------| 
G|---------------------------------------------------------------------------| 
D|-------0-2-2-4-2--------0-2-2-4-2------------------------------------------| 
A|-0-0-4------------0-0-4------------------0-2-2-4-2---------0-2-2-4-2-------| 
E|-----------------------------------0-0-4------------0-0-4------------------| 

e|---------------------------------------------------------------------------| 
B|---------------------------------------------------------------------------| 
G|-----------------------------2-2-2--4--2-2-2--4--2-2-2--4------------------| 
D|-------0-2-2-4-2--------0-2--2-2-2--4--2-2-2--4--2-2-2--4------------------| 
A|-0-0-4------------0-0-4------0-0-0--2--0-0-0--2--0-0-0--2------------------| 
E|---------------------------------------------------------------------------| 


Guitar Solo 

Guitar 1 

e|-----------------------------------------0--------0--------0---------------| 
B|----------------------------------------0--------0--------0----------------| 
G|-3b5--3b5--3p1--3-1---1--3p1---1-3--3b5------3b5------3b5------------------| 
D|--------------------3--------3---------------------------------------------| 
A|---------------------------------------------------------------------------| 
E|---------------------------------------------------------------------------| 

e|-0----0----0----0----------------------------------------------------------| 
B|-0----0----0----0----------------------------------------------------------| 
G|-3b5--3b5--3b5--3b5--------------------------------------------------------| 
D|---------------------------0-2-2-4-2--------0-2-2-4-2----------------------| 
A|---------------------0-0-4------------0-0-4--------------------------------| 
E|---------------------------------------------------------------------------| 

e|---------------------------------------------------------------------------| 
B|---------------------------------------------------------------------------| 
G|-----------------------------------4-4-4-4-4-4-4-4-4-4-4-4-4-4-4-4---------| 
D|-----------------------------------4-4-4-4-4-4-4-4-4-4-4-4-4-4-4-4---------| 
A|-------0-2-2-4-2--------0-2-2-4-2--2-2-2-2-2-2-2-2-2-2-2-2-2-2-2-2---------| 
E|-0-0-4------------0-0-4----------------------------------------------------| 

e|---------------------------------------------------------------------------| 
B|---------------------------------------------------------------------------| 
G|---------------------4-4-4-4-4-4-4-4---------------------------------------| 
D|-------0-2-2-4-2-----4-4-4-4-4-4-4-4---------------------------------------| 
A|-0-0-4------------0--2-2-2-2-2-2-2-2---------------------------------------| 
E|---------------------------------------------------------------------------| 


Guitar 2 

e|---------------------------------------------------------------------------| 
B|---------------------------------------------------------------------------| 
G|---------------------------------------------------------------------------| 
D|---------------------------------------------------------------------------| 
A|-------0-2-2-4-2--------0-2-2-4-2---------0-2-2-4-2------------------------| 
E|-0-0-4------------0-0-4-------------0-0-4------------0-0-0-2-3-3-----------| 

e|---------------------------------------------------------------------------| 
B|---------------------------------------------------------------------------| 
G|---------------------------------------------------------------------------| 
D|-------0-2-2-4-2--------0-2-2-4-2------------------------------------------| 
A|-0-0-4------------0-0-4------------------0-2-2-4-2--------0-2-2-4-2--------| 
E|-----------------------------------0-0-4------------0-0-4------------------| 

e|---------------------------------------------------------------------------| 
B|---------------------------------------------------------------------------| 
G|-4-4-4-4-4-4-4-4-4-4-4-4-4-4-4-4----------------------4-4-4-4-4-4-4-4------| 
D|-4-4-4-4-4-4-4-4-4-4-4-4-4-4-4-4--------0-2-2-4-2-----4-4-4-4-4-4-4-4------| 
A|-2-2-2-2-2-2-2-2-2-2-2-2-2-2-2-2--0-0-4------------0--2-2-2-2-2-2-2-2------| 
E|---------------------------------------------------------------------------| 


verse 3 

e|---------------------------------------------------------------------------| 
B|---------------------------------------------------------------------------| 
G|-9--------7-7-7--9--------9--9--9------------------------------------------| 
D|-9--------7-7-7--9--------9--9--9------------------------------------------| 
A|-7--------5-5-5--7--------7--7--7------------------------------------------| 
E|---------------------------------------------------------------------------| 


Chorus 

e|---------------------------------------------------------------------------| 
B|---------------------------------------------------------------------------| 
G|---------------------------------------------------------------------------| 
D|-------0-2-2-4-2--------0-2-2-4-2------------------------------------------| 
A|-0-0-4------------0-0-4------------------0-2-2-4-2---------0-2-2-4-2-------| 
E|-----------------------------------0-0-4------------0-0-4------------------| 

e|---------------------------------------------------------------------------| 
B|---------------------------------------------------------------------------| 
G|-----------------------------2-2-2--4--2-2-2--4--2-2-2--4------------------| 
D|-------0-2-2-4-2--------0-2--2-2-2--4--2-2-2--4--2-2-2--4------------------| 
A|-0-0-4------------0-0-4------0-0-0--2--0-0-0--2--0-0-0--2------------------| 
E|---------------------------------------------------------------------------| 


Outro 

Guitar 1 

e|---------------------------------------------------------------------------| 
B|---------------------------------------------------------------------------| 
G|---------------------------------------------------------------------------| 
D|---------------------------------------------------------------------------| X8 
A|-------0-2-2-4-2---------0-2-2-4-2-----------------------------------------| 
E|-0-0-4------------0-0-4----------------------------------------------------| 

e|---------------------------------------------------------------------------| 
B|---------------------------------------------------------------------------| 
G|-9-9--12-12--11-11--10-10--------------------------------------------------| 
D|-x-x--x--x---x--x---x--x---------------------------------------------------| X4 
A|-7-7--10-10--9--9---8--8---------------------------------------------------| 
E|---------------------------------------------------------------------------| 

e|---------------------------------------------------------------------------| 
B|---------------------------------------------------------------------------| 
G|-9--9--9-------------------------------------------------------------------| 
D|-9--9--9-------------------------------------------------------------------| 
A|-7--7--7-------------------------------------------------------------------| 
E|---------------------------------------------------------------------------| 


Guitar 2 

e|---------------------------------------------------------------------------| 
B|---------------------------------------------------------------------------| 
G|---------------------------------------------------------------------------| 
D|---------------------------------------------------------------------------| X8 
A|-------0-2-2-4-2---------0-2-2-4-2-----------------------------------------| 
E|-0-0-4------------0-0-4----------------------------------------------------| 

e|---------------------------------------------------------------------------| 
B|---------------------------------------------------------------------------| 
G|---------------------------------------------------------------------------| 
D|---------------------------------------------------------------------------| X4 
A|---------------------------------------------------------------------------| 
E|-0-0--3-3--2-2--1-1--------------------------------------------------------| 

e|---------------------------------------------------------------------------| 
B|---------------------------------------------------------------------------| 
G|---------------------------------------------------------------------------| 
D|-2--2--2-------------------------------------------------------------------| 
A|-2--2--2-------------------------------------------------------------------| 
E|-0--0--0-------------------------------------------------------------------| 


************************************ 

| x   Dead note 
| p   Pull-off 
| b   Bend 
| /   Slide up 
| \   Slide down 
| ~   Vibrato 

************************************ 
	  

Search Paypal
auto scroll beats size up size down change color hide chords drawings
tab show chords e-chords YouTube Clip e-chords hide all tabs e-chords go to top tab

share with facebook