Green Day

home > Green Day

Poprocks and coke Tab

Green Day

Difficulty: BeginnerBeginner

by Donkey+Fly

tuner correct add songbook print version text version save to e-mail
chordsukulelecavacokeyboardtabbassdrummharmonicsflute Guitar Pro
chords

Poprocks and coke

  		INTRO: 
  A                       E 
E---------------------------------------------------------------------| 
B-2-2-2---2-2-2-2--2-2-2----------------------------------------------| 
G-2-2-2---2-2-2-2--2-2-2--9-9-----------------------------------------| 
D-2-2-2---2-2-2-2--2-2-2--9-9-----------------------------------------| 
A-------------------------7-7-----------------------------------------| 
E---------------------------------------------------------------------| 
 
Verse 1 and 2: 
       A             D        A                E            D 
E-------------------------------------------------------------------------| 
B----2-2-2-2--2-2-2------------2-2-2-2--2-2-2-----------------------------| 
G-*--2-2-2-2--2-2-2--7-7-7--*--2-2-2-2--2-2-2--9-9-9--9-9-9--7-7-7--7-7-7-| 
D-*--2-2-2-2--2-2-2--7-7-7--*--2-2-2-2--2-2-2--9-9-9--9-9-9--7-7-7--7-7-7-| 
A--------------------5-5-5---------------------7-7-7--7-7-7--5-5-5--5-5-5-| 
E-------------------------------------------------------------------------| 
    A               E 
 -------------- -------| 
 ---2-2-2------ -------| 
 ---2-2-2--{2x} --9-9--| 
 ---2-2-2------ --9-9--| 
 -------------- --7-7--| 
 -------------- -------| 
 
Chorus: 
  F#m       E       D A  E        D        A E         D 
E---------------------------------------------------------------| 
B---------------------------------------------------------------| 
G----------1-1-1-1--7----9-9-9-9--7-7-7-7----9-9-9-9--7-7-7-7---| 
D-2-2-2-2--2-2-2-2--7-7--9-9-9-9--7-7-7-7--7-9-9-9-9--7-7-7-7---| 
A-2-2-2-2--2-2-2-2--5-7--7-7-7-7--5-5-5-5--7-7-7-7-7--5-5-5-5---| 
E-4-4-4-4-------------5--------------------5--------------------| 
 
PLAY INTRO 
 
VERSE 3 AND 4: 
      A                D         A               E             D 
E---------------------------------------------------------------------------| 
B----2-2-2-2--2-2-2-2------------2-2-2-2--2-2-2-----------------------------| 
G-*--2-2-2-2--2-2-2-2--7-7-7--*--2-2-2-2--2-2-2--9-9-9--9-9-9--7-7-7--7-7-7-| 
D-*--2-2-2-2--2-2-2-2--7-7-7--*--2-2-2-2--2-2-2--9-9-9--9-9-9--7-7-7--7-7-7-| 
A----------------------5-5-5---------------------7-7-7--7-7-7--5-5-5--5-5-5-| 
E---------------------------------------------------------------------------| 
  PM________________ 
    A     E 
 --------------| 
 ---2-2-2------| 
 ---2-2-2--9-9-| 
 ---2-2-2--9-9-| 
 ----------7-7-| 
 --------------| 
Chorus: 
  F#m       E       D A  E        D        A E         D 
E---------------------------------------------------------------| 
B---------------------------------------------------------------| 
G----------1-1-1-1--7----9-9-9-9--7-7-7-7----9-9-9-9--7-7-7-7---| 
D-2-2-2-2--2-2-2-2--7-7--9-9-9-9--7-7-7-7--7-9-9-9-9--7-7-7-7---| 
A-2-2-2-2--2-2-2-2--5-7--7-7-7-7--5-5-5-5--7-7-7-7-7--5-5-5-5---| 
E-4-4-4-4-------------5--------------------5--------------------| 
 
PLAY INTRO 
 
INSTRUMENTAL: 
  F#m          E A                   D           C# A                  F#m 
E---------------------------------------------------------------------------| 
B----------------2--2-2-2-2-2-2-2-----------------2--2-2-2-2-2-2-2----------| 
G--------------1-2--2-2-2-2-2-2-2--7-7-7-7--7-7-6-2--2-2-2-2-2-2-2----------| 
D-2-2-2-2--2-2-2-2--2-2-2-2-2-2-2--7-7-7-7--7-7-6-2--2-2-2-2-2-2-2--2-2-2-2-| 
A-2-2-2-2--2-2-2-------------------5-5-5-5--5-5-4-------------------2-2-2-2-| 
E-4-4-4-4--4-4------------------------------------------------------4-4-4-4-| 
     E A                   D     Dmaj9 D    E                    A   E 
----------------------------------------------------------------------------| 
----------------------------------5-5----------------------------2----------| 
-----1-2--2-2-2-2-2-2-2--7-7-7-7--6-6-7-7--1-1-1-1--1-1-1-1--1-1-2--9-9-9-9-| 
-2-2-2-2--2-2-2-2-2-2-2--7-7-7-7--7-7-7-7--2-2-2-2--2-2-2-2--2-2-2--9-9-9-9-| 
-2-2-2-2--2-2-2-2-2-2-2--5-5-5-5------5-5--2-2-2-2--2-2-2-2--2-2----7-7-7-7-| 
-4-4------------------------------------------------------------------------| 
 
----------| 
----------| 
-9-9-9-9--| 
-9-9-9-9--| 
-7-7-7-7--| 
----------| 
 
OUTRO: 
  A                       E    A                       E 
E----------------------------------------------------------| 
B-2-2-2---2-2-2-2--2-2-2-------2-2-2---2-2-2-2--2-2-2------| 
G-2-2-2---2-2-2-2--2-2-2--9-9--2-2-2---2-2-2-2--2-2-2--9-9-| 
D-2-2-2---2-2-2-2--2-2-2--9-9--2-2-2---2-2-2-2--2-2-2--9-9-| 
A-------------------------7-7--------------------------7-7-| 
E----------------------------------------------------------| 
 
    A                       E 
 -----------------------------------| 
 --2-2-2---2-2-2-2--2-2-2-------2-2-| 
 --2-2-2---2-2-2-2--2-2-2--9-9--2-2-| 
 --2-2-2---2-2-2-2--2-2-2--9-9--2-2-| 
 --------------------------7-7------| 
 -----------------------------------| 
 
-*- 
-*- that means rest 
 
 

	  

Full key step upFull key step up
Half key step upHalf key step up
Half key step downHalf key step down
Full key step downFull key step down
Search Paypal
auto scroll beats size up size down change color hide chords drawings
tab show chords e-chords YouTube Clip e-chords hide all tabs e-chords go to top tab