Green Day

Boulevard of brocken dreams Tab

Green Day

Difficulty: BeginnerBeginner

by WhatsBaraNofu

tuner correct add songbook print version text version save to e-mail
chordsukulelecavacokeyboardtabbassdrumsharmonicsflute Guitar Pro
close

there isn't a video lesson for this song

chords

Boulevard of brocken dreams

  		Esse solo e executado no meio da musica, quase para o final! 
 
 
e|----------8-------------------- 
b|-6-6-8-9~---11-8-9---(3x)---13- 
g|------------------------------- 
d|------------------------------- 
a|------------------------------- 
E|------------------------------- 
 
  
e|--------------- 
b|--------------- 
g|---6-8-7------- 
d|-3-6-8-7-6-2--- (4x) 
a|-3-4-6-5-6-2--- 
E|-1-------4-0--- 

	  

auto scroll beats size up size down change color hide chords drawings
tab show chords e-chords YouTube Clip e-chords hide all tabs e-chords go to top tab

share with facebook

Search Paypal