Great Good Fine Ok

Not Going Home

Great Good Fine Ok

tabs

by  ADALGOMES

save to print version add songbook text version e-mail correct tuner
chordsukulelecavacokeyboardtabbassdrumsharmonicaflute Guitar Pro
close

there isn't a video lesson for this song

chords

Not Going Home

	  		
 

 

Intro 

e |--7----------------------------------------------------| 
B |--7------7-9-7---4--2---4h5p---7-9-7--4--2---4h5-------| 
G |--8----4--------------4--------------------4-----4-----| 
D |--9----------------------------------------------------| 
A |--9----------------------------------------------------|      
E |--7--\-------------------------------------------------| 


e |------------------------------------------| 
B |----7--9--7--4--2---4h5p--6\4--2----------| 
G |------------------4---------------4--3-4--| 
D |------------------------------------------| 
A |------------------------------------------|   
E |------------------------------------------| 


verse 1 

e |--0----2----4----0-------| 
B |--0----2----4----0-------| 
G |--1----3----4----1-------| 
D |--2----4----6----2-------| 
A |--2----4----6----2-------|    
E |--0----2----4----0-------| 

There?s a matter within my heart 
Try trying to find my part in all this 
And I, 
Been living within my hurt 
You push me away  
I?m sure you?re sorry 


Pre-Chorus 

e |---7------------------| 
B |---7------------------| 
G |---8------------------| 
D |---9------------------| 
A |---9------------------|       
E |---7------------------| 


Find a way and take a chance to finally love it 
I?m the one to make a big deal outta nothing 

Chorus 

e |--0----2----4----9-------| 
B |--0----2----4----9-------| 
G |--1----3----4----10------| 
D |--2----4----6----11------| 
A |--2----4----6----11------|    
E |--0----2----4----9-------| 

Where?s the happy in the middle 
Where?s the moon when I shine 
I would love it if you noticed that I?m not going home 
Every time I ever I voted 
Every time I ever cried 
I would love it if you noticed 
That I?m not going home 

B Chorus  

e |--0----2----4----9-------| 
B |--0----2----4----9-------| 
G |--1----3----4----10------| 
D |--2----4----6----11------| 
A |--2----4----6----11------|    
E |--0----2----4----9-------| 

And I?m never gonna settle if I?m waiting 
And I?m never gonna roll the dice 
For a chance to take the ride 
Every time I ever voted  
Every time I ever cried 
I would love it noticed 
That I?m not going home 

verse 2 

And I?ll never get on my page 
Living fighting with all that rage and sorrow 
And I, 
Will get it in different ways 
Found the good in all my days and tomorrow 
And I?m never gonna settle if I?m waiting 
And I?m never gonna roll the dice 
And I?m never gonna see the light 

Pre - Chorus 

e |---7------------------| 
B |---7------------------| 
G |---8------------------| 
D |---9------------------| 
A |---9------------------|       
E |---7------------------| 

I?m the one to make a big deal outta nothing 

Chorus 

Outro 

e |--7----------------------------------------------------| 
B |--7------7-9-7---4--2---4h5p---7-9-7--4--2---4h5-------| 
G |--8----4--------------4--------------------4-----4-----| 
D |--9----------------------------------------------------| 
A |--9----------------------------------------------------|      
E |--7--\-------------------------------------------------| 


e |------------------------------------------| 
B |----7--9--7--4--2---4h5p--6\4--2----------| 
G |------------------4---------------4--3-4--| 
D |------------------------------------------| 
A |------------------------------------------|   
E |------------------------------------------| 
		  

Full key step upFull key step up
Half key step upHalf key step up
Half key step downHalf key step down
Full key step downFull key step down
hide glossary

See also:

tabs Scalene - Milhares Como Eu tabs Deep Purple - Never A Word tabs Deep Purple - Smoke On The Water (Intro + solo 01) tabs Ira! - Flerte Fatal (intro e solo) tabs Deep Purple - Deep Purple - Smoke On The Water tabs Deep Purple - Burn
e-chords

Other versions:

tabs Great Good Fine Ok - Not Going Home
auto scroll beats size up size down change color hide chords drawings
tab show chords e-chords YouTube Clip e-chords hide all tabs e-chords go to top tab

share