Grateful Dead

home > Grateful Dead

The Other One Tab

Grateful Dead

Difficulty: nolevelnolevel

by andrsouza

tuner correct add songbook print version text version save to e-mail
chordsukulelecavacokeyboardtabbassdrumsharmonicsflute Guitar Pro
chords

The Other One

  		  Intro:                Solo area: 
e|-0~-------(Bass lick)|--------------------------------------|| 
B|-0~------------------|------------------------------8--10~--|| 
G|-1~------------------|--x7/9--9--x7/9--9--x7/9--9---7--9~--o|| 
D|-2~------------------|--x7/9--9--x7/9--9--x7/9--9---5--7~--o||(Play for as long as you want) 
A|-2~------------------|--x5/7--7--x5/7--7--x5/9--7-----------|| 
E|-0~------------------|--------------------------------------|| 
     You can play that, or you can play different inversions of the D and E chord. 
     Every now and then it gets quieter. 
   
   Verse: 
e|--------------------------------------|---| 
B|------------------------------8--10~--|---| 
G|---x7/9--9--x7/9--9--x7/9--9--7--9~--o|---| 
D|---x7/9--9--x7/9--9--x7/9--9--5--7~--o|-x7| 
A|---x5/7--7--x5/7--7--x5/7--7----------|---| 
E|--------------------------------------|---| 
    
   Chorus: 
e|-----------------------------|-|------| 
B|-----------------------------|-|------| 
G|---9-x-x-x-9-x-x-x-9-7-5-2--o|-|------| 
D|---9-x-x-x-9-x-x-x-9-7-5-2--o|-|--x2--| 
A|---7-x-x-x-7-x-x-x-7-5-3-0---|-|------| 
E|-----------------------------|-|------| 

 
 Verse: 
e|--------------------------------------|---| 
B|------------------------------8--10~--|---| 
G|---x7/9--9--x7/9--9--x7/9--9--7--9~--o|---| 
D|---x7/9--9--x7/9--9--x7/9--9--5--7~--o|-x7| 
A|---x5/7--7--x5/7--7--x5/7--7----------|---| 
E|--------------------------------------|---| 

Chorus: 
e|-----------------------------|-|------| 
B|-----------------------------|-|------| 
G|---9-x-x-x-9-x-x-x-9-7-5-2--o|-|------| 
D|---9-x-x-x-9-x-x-x-9-7-5-2--o|-|--x2--| 
A|---7-x-x-x-7-x-x-x-7-5-3-0---|-|------| 
E|-----------------------------|-|------| 
   Play the last 4 chords 

  Ending Lick: 
e|-------------------------------12~--12-------------------------------------| Lead 
B|---15p14p12-15p14p12-15p14p12---------12-----------------------------------| 
G|----------------------------------------9~---------------------------------| 
D|---------------------------------------------------------------------------| 
A|---------------------------------------------------------------------------| 
E|---------------------------------------------------------------------------| 
 | 
 | 
e|----------------------------------------0~---------------------------------| Rhythm 
B|----------------------------------------0~---------------------------------| 
G|-4~----------------------------2~-------1~---------------------------------| 
D|-4~----------------------------2~-------2~---------------------------------| 
A|-2~----------------------------0~-------2~---------------------------------| 
E|----------------------------------------0~---------------------------------| 

 
	  

Full key step upFull key step up
Half key step upHalf key step up
Half key step downHalf key step down
Full key step downFull key step down
Search Paypal
auto scroll beats size up size down change color hide chords drawings
tab show chords e-chords YouTube Clip e-chords hide all tabs e-chords go to top tab