Graham Coxon

A Place For Grief

Graham Coxon

tabs

by  ALYSLIMA

save to print version add songbook text version e-mail correct tuner
chordsukulelecavacokeyboardtabbassdrumsharmonicaflute Guitar Pro
close

there isn't a video lesson for this song

chords

A Place For Grief

	  		Intro 

e|-------0---------|-------0---------|-------0---------|-------0---------| 
B|---------0---0---|---------0---0---|---------0---0---|---------0---0---| 
G|-----------0-----|-----------0-----|-----0-----0-----|-----0-----0-----| x2 
D|-----2---------2-|-----2---------2-|---2-----------2-|---2-----------2-| 
A|---2-------------|---2-------------|-3---------------|-3---------------| 
E|-0---------------|-0---------------|-----------------|-----------------| 

Verse 

e|-------0---------|-------0---------|-------0---------|-------0---------| 
B|---------0---0---|---------0---0---|---------0---0---|---------0---0---| 
G|-----------0-----|-----------0-----|-----0-----0-----|-----0-----0-----| x4 
D|-----2---------2-|-----2---------2-|---2-----------2-|---2-----------2-| 
A|---2-------------|---2-------------|-3---------------|-3---------------| 
E|-0---------------|-0---------------|-----------------|-----------------| 

PreChorus 
   
e|-----------------|-----------------|-----------------|-----------------| 
B|-----------------|-----------------|-----------------|-----------------| 
G|---2-2---2-2---2-|---2-2---2-2---2-|---2-2---2-2---2-|---2-2---2-2---2-| 
D|---4-4---4-4---4-|---4-4---4-4---2-|---4-4---4-4---4-|---4-4---4-4---2-| 
A|-2-----2-----2---|-2-----2-----2---|-3-----3-----3---|-3-----3-----3---| 
E|-----------------|-----------------|-----------------|-----------------| 

e|-----------------|-----------------|-----------------|-----------------| 
B|-----------------|-----------------|-----------------|-----------------| 
G|---2-2---2-2---2-|---2-2---2-2---2-|---2-2---2-2---2-|---2-2---2-2---2-| 
D|---4-4---4-4---4-|---4-4---4-4---2-|---4-4---4-4---4-|---4-4---4-4---2-| 
A|-----------------|-----------------|-2-----2-----2---|-2-----2-----2---| 
E|-0-----0-----0---|-0-----0-----0---|-----------------|-----------------| 

e|-----------------|-----------------|-----------------|-----------------| 
B|-----------------|-----------------|-----------------|-----------------| 
G|---2-2---2-2---2-|---2-2---2-2---2-|---2-2---2-2---2-|---2-2---2-2---2-| 
D|---4-4---4-4---4-|---4-4---4-4---2-|---4-4---4-4---4-|---4-4---4-4---2-| 
A|-2-----2-----2---|-2-----2-----2---|-3-----3-----3---|-3-----3-----3---| 
E|-----------------|-----------------|-----------------|-----------------| 

e|-----------------|-----------------|-----------------|-----------------| 
B|-----------------|-----------------|-----------------|-----------------| 
G|---2-2---2-2---2-|---2-2---2-2---2-|---2-2---2-2---2-|---2-2---2-2---2-| 
D|---4-4---4-4---4-|---4-4---4-4---2-|---4-4---4-4---4-|---4-4---4-4---2-| 
A|-----------------|-----------------|-2-----2-----2---|-2-----2-----2---| 
E|-0-----0-----0---|-0-----0-----0---|-----------------|-----------------| 

Chorus 1 

e|-----------------|-----------------|-----------------|-----------------| 
B|-----------------|-------0---------|-----------------|-----------------| 
G|-----------0-----|-------2---------|-----0-0---------|-------0-------0-| 
D|---2---4-----2---|-----------------|-----0-0-----0---|-------------0---| 
A|---2---------2---|-----------------|-------------2---|-----------0-----| 
E|-0---------------|---0-----0---2---|-3---------3-----|-----3---2-------| 

e|-----------------|-----------------|-----------------|-----------3-----| 
B|-----------------|-----------------|-----------------|-----------3-----| 
G|-------0-----0---|-----------------|-------0---------|---------0-------| 
D|-------2-----2---|---2-------------|-------0-----0---|---0---0---------| 
A|-----2-----------|-----2-----------|-------------2---|-----------------| 
E|-0---------------|-------0-0---2---|-3---------------|-----3-----------| 

e|-2-3-------------|-----------------|-----------------|-----------------| 
B|-----------0-----|-------3---------|-------0---------|-------4---------| 
G|-------0---------|-----3-----3-----|-----0-----0-----|-----6-----6-----| 
D|-----------------|---3---------3---|---0---------0---|---5---------5---| 
A|-----------------|-1-------------1-|-----------------|-4-------------4-| 
E|-----------------|-----------------|-3---------------|-----------------| 

e|-----------------|-----------------| 
B|-------3---------|-------3---3-----| 
G|-----4-----4-----|-----4-4-----4---| 
D|---5-----------5-|---5-------------| 
A|-----------------|---------5-------| 
E|-3---------------|-3---------------| 

Chorus 2 

e|-----------------|---------0-------|-2---------------|-----------------| 
B|-------1---------|---------0-------|-3---------3-----|---------0-------| 
G|-----0-----0-----|---------0-------|-2-----2-------2-|---------4-------| 
D|---2-----------2-|-----2---2-------|-4---------------|---4-----4-------| 
A|-3---------------|-3---------------|-----2---2---2---|-2---2-----------| 
E|-----------------|-----------------|-----------------|-----------------| 

e|-----------------|-----------------|-----------------|---0-------------| 
B|-2-------------2-|-----------------|-0---------------|-------0---------| 
G|-0---------0-----|---0-----0h2-----|-0-------------0-|-----------0-----| 
D|-1-----1---------|-----1-----------|-2-------2---2---|---------2-------| 
A|-----0---0---0---|-0---------------|-----------------|-----------------| 
E|-----------------|-----------------|-----------------|-----------------| 

e|-----------------|---------0-------|-----------------|-----------------| 
B|-------1---------|---------0-------|-3---------------|---------0-------| 
G|-----0-----0-----|---------0-------|-2-----2---------|---2-----4-------| 
D|---2-----------2-|-----2---2-------|-0---------0-----|---------4-------| 
A|-3---------------|-3---------------|-1-------------1-|-------0---------| 
E|-----------------|-----------------|-----------------|-----------------| 

e|-----------------|-----------------|-3---------------|-----------------| 
B|-2---------2-----|-----------------|-1p0-------------|-------0---------| 
G|-0-----0-------0-|---------0h2-----|-------0---------|---0-------0-----| 
D|-1---------------|-----------------|-----------0-----|-0---0---0---0---| 
A|-----------------|---0-------------|-----------------|-----------------| 
E|-----------------|-----------------|-------------3---|-----------------| 

Bridge 

e|-------0---------|-------0---------|-------0---------|-------0---------| 
B|---------0---0---|---------0---0---|---------0---0---|---------0---0---| 
G|-----------0-----|-----------0-----|-----0-----0-----|-----0-----0-----| x2 
D|-----2---------2-|-----2---------2-|---2-----------2-|---2-----------2-| 
A|---2-------------|---2-------------|-3---------------|-3---------------| 
E|-0---------------|-0---------------|-----------------|-----------------| 

Verse 

e|-------0---------|-------0---------|-------0---------|-------0---------| 
B|---------0---0---|---------0---0---|---------0---0---|---------0---0---| 
G|-----------0-----|-----------0-----|-----0-----0-----|-----0-----0-----| x4 
D|-----2---------2-|-----2---------2-|---2-----------2-|---2-----------2-| 
A|---2-------------|---2-------------|-3---------------|-3---------------| 
E|-0---------------|-0---------------|-----------------|-----------------| 

PreChorus 
   
e|-----------------|-----------------|-----------------|-----------------| 
B|-----------------|-----------------|-----------------|-----------------| 
G|---2-2---2-2---2-|---2-2---2-2---2-|---2-2---2-2---2-|---2-2---2-2---2-| 
D|---4-4---4-4---4-|---4-4---4-4---2-|---4-4---4-4---4-|---4-4---4-4---2-| 
A|-2-----2-----2---|-2-----2-----2---|-3-----3-----3---|-3-----3-----3---| 
E|-----------------|-----------------|-----------------|-----------------| 

e|-----------------|-----------------|-----------------|-----------------| 
B|-----------------|-----------------|-----------------|-----------------| 
G|---2-2---2-2---2-|---2-2---2-2---2-|---2-2---2-2---2-|---2-2---2-2---2-| 
D|---4-4---4-4---4-|---4-4---4-4---2-|---4-4---4-4---4-|---4-4---4-4---2-| 
A|-----------------|-----------------|-2-----2-----2---|-2-----2-----2---| 
E|-0-----0-----0---|-0-----0-----0---|-----------------|-----------------| 

e|-----------------|-----------------|-----------------|-----------------| 
B|-----------------|-----------------|-----------------|-----------------| 
G|---2-2---2-2---2-|---2-2---2-2---2-|---2-2---2-2---2-|---2-2---2-2---2-| 
D|---4-4---4-4---4-|---4-4---4-4---2-|---4-4---4-4---4-|---4-4---4-4---2-| 
A|-2-----2-----2---|-2-----2-----2---|-3-----3-----3---|-3-----3-----3---| 
E|-----------------|-----------------|-----------------|-----------------| 

e|-----------------|-----------------|-----------------|-----------------| 
B|-----------------|-----------------|-----------------|-----------------| 
G|---2-2---2-2---2-|---2-2---2-2---2-|---2-2---2-2---2-|---2-2---2-2---2-| 
D|---4-4---4-4---4-|---4-4---4-4---2-|---4-4---4-4---4-|---4-4---4-4---2-| 
A|-----------------|-----------------|-2-----2-----2---|-2-----2-----2---| 
E|-0-----0-----0---|-0-----0-----0---|-----------------|-----------------| 

Chorus 3 

e|-----------------|-----------------|-----------------|-----------------| 
B|-----------------|-----------------|-----------------|-----------------| 
G|-----------0-----|-----------------|-----0-0---------|-----------------| 
D|---2---4-----2---|---2-------------|-----0-0-----0---|-------0-----0---| 
A|---2---------2---|-------2---------|-------------2---|-----2-----0-----| 
E|-0---------------|---------0---2---|-3---------3-----|---------2-------| 

e|-----------------|-----------------|-----------------|-----------3-----| 
B|-----------------|-----------------|-----------------|-----------3-----| 
G|-----------------|-----------------|-------0---------|-------------0---| 
D|-2-----2-----2---|-------2---------|-----0-0-----0---|-------0---------| 
A|-2-----2-----2---|-----------2-----|---2---------2---|-----------------| 
E|-----0-----0-----|-------------2---|-3---------------|---------3-------| 

e|-2-3-------3-----|-----------------|-----------------|-----------------| 
B|-------------0---|-------3---------|-------0---------|-------4---------| 
G|-------0---------|-----3-----3-----|-----0-----0-----|-----6-----6-----| 
D|-----------------|---3---------3---|---0---------0---|---5---------5---| 
A|-----------------|-1-------------1-|-----------------|-4-------------4-| 
E|-----------------|-----------------|-3---------------|-----------------| 

e|-----------------|-----------------| 
B|-------3---------|-------3---3-----| 
G|-----4-----4-----|-----4-4-----4---| 
D|---5-----------5-|---5-------------| 
A|-----------------|---------5-------| 
E|-3---------------|-3---------------| 

Chorus 4 (Begin turning up reverb) 

e|-----------------|---------0-------|-2---------------|-----------------| 
B|-------1---------|---------0-------|-3---------3-----|---------0-------| 
G|-----0-----0-----|-----0---0-------|-2-----2-------2-|---------4-------| 
D|---2-----------2-|---2---2-2-------|-4---------------|---4-----4-------| 
A|-3-------3---3---|-3---------------|-----2---2---2---|-2---2-----------| 
E|-----------------|-----------------|-----------------|-----------------| 

e|-----------------|-----------------|-----------------|-----------------| 
B|-2---------2-----|-----------------|-0---------------|---------------0-| 
G|-0-------------0-|---------0h2-----|-0---------0-----|-------------0---| 
D|-1-----1---------|-----1-----------|-2-------------2-|---2-------2-----| 
A|-----0---0---0---|---0---0---------|-----------------|-----------------| 
E|-----------------|-----------------|-----0---0-------|---------0-------| 

e|-----------------|---------0-------|-----------------|-----------------| 
B|-------1---------|---------0-------|-3---------------|---------0-------| 
G|-----0-----------|---------0-------|-2-----2---------|---------4-------| 
D|---2-----------2-|-----2---2-------|-0---------0-----|---------4-------| 
A|-3---------------|-3---------------|-1-------------1-|-------0---------| 
E|-----------------|-----------------|-----------------|-----------------| 

e|-----------------|-----------------|-----------------|-3---------------| 
B|-2---------2-----|-----------------|-0h2---2---2-----|-1p0-------------| 
G|-0-------------0-|---------0-------|-0h2---2-----2---|-------0---------| 
D|-1-----1---------|-----1-----------|-2-------------2-|-----------0-----| 
A|-----0---0---0---|---0---0-----0---|-----------------|-----------------| 
E|-----------------|-----------------|-----------------|-------------3---| 

Outro 

e|-------3-2-3-----|-----------------|-------3---------|-----------------| 
B|-----------------|-------3---------|-----------------|-------4---------| 
G|-----------------|-----3-------3---|-----0-----0-----|-----6-----6-----| 
D|---0-------------|---3-------------|---0---------0---|---5---------5---| 
A|-----------------|-1--------1------|-----------------|-4-------------4-| 
E|-3---------------|---------------3-|-----------------|-----------------| 

e|-----------------|-----------------|-----------------|-----------------| 
B|-------4---------|-------4---------|-------4---------|-------4---------| 
G|-----6-----6-----|-----6-----6-----|-----6-----6-----|-----6-----6-----| 
D|---5---------5---|---5---------5---|---5---------5---|---5---------5---| 
A|-4-------------4-|-4-------------4-|-4-------------4-|-4-------------4-| 
E|-----------------|-----------------|-----------------|-----------------| 
                                       Noise starts 

*************************** 
            KEY 
h = hammer-on 
p = pull-off 
*************************** 
		  

See also:

tabs Guru Josh Project - Infinity 2008 tabs Bruno Mars - Runaway Baby tabs Misc Computer Games - Far Cry 5 - Now That This Old World Is Ending tabs Misc Television - Doctor Who - Claras Theme tabs Misc Computer Games - Yoshis Island - Story Music Box tabs Misc Television - Gravity Falls Theme
e-chords

Other versions:

tabs Graham Coxon - A Place For Grief
auto scroll beats size up size down change color hide chords drawings
tab show chords e-chords YouTube Clip e-chords hide all tabs e-chords go to top tab

share