Good Charlotte

home > Good Charlotte

Waldorf Worldwide Tab

Good Charlotte

Difficulty: nolevelnolevel

tuner correct add songbook print version text version save to e-mail
chordsukulelecavacokeyboardtabbassdrummharmonicsflute Guitar Pro
chords

Waldorf Worldwide

  		 Afinação -  E A D G B E 

Introdução
e|----------------------------------------------------|-
B|---------11----------10------------8----------8h10—-|-
G|-----10-----xxxx-10-----10------8-----8----10-------|-
D|—8---------------------------8-----------8----------|-
A|----------------------------------------------------|-
E|----------------------------------------------------|-

e|--------------------------------------------------|-
B|---------11---------10-----------8----------------|-
G|-----10----xxxx-10-----10-----8-------10–10–10–10—|-
D|—8-------------------------8----------10–10–10–10—|-
A|--------------------------------------8—-8--8—-8—-|-
E|--------------------------------------------------|-

Verso   *Toque Com Wah Wah
e|-------------------------------|--
B|-------------------------------|--
G|------10–10---8--8—---10–10----|--
D|—8–8—-10–10---8--8—---10–10----|--
A|—8–8—-8—-8----6--6----8—-8-----|--
E|—6–6---------------------------|--			

*Primeira Parte Do Segundo Verso  verse, a introdução é tocada.

Intervalo. Toque Na Mesma Velocidade.
e|------------------------------------------
B|------------------------------------------
G|–8-8-8-8-8-8-8-8-10–10–10-10-10–10–10-10--
D|–8-8-8-8-8-8-8-8-10-10-10-10-10-10-10-10--
A|–6-6-6-6-6-6-6-6-8--8--8--8--8--8--8--8---
E|------------------------------------------

e|--------------------------------------
B|--------------------------------------
G|--------------------------------------
D|—8-8-8-8--6-6-6-6--5-5-5-5-5-5-5-5----
A|—8-8-8-8--6-6-6-6--5-5-5-5-5-5-5-5----
E|—6-6-6-6--4-4-4-4--3-3-3-3-3-3-3-3----

e|------------------------------------------
B|------------------------------------------
G|–8-8-8-8-8-8-8-8-10–10–10-10-10–10–10-10--
D|–8-8-8-8-8-8-8-8-10-10-10-10-10-10-10-10--
A|–6-6-6-6-6-6-6-6-8--8--8--8--8--8--8--8---
E|------------------------------------------

e|---------------------------------------
B|---------------------------------------
G|---------------------------------------
D|—8-8-8-8-8-8-8-8----5-5-5-5-5-5-5-5----
A|—8-8-8-8-8-8-8-8----5-5-5-5-5-5-5-5----
E|—6-6-6-6-6-6-6-6----3-3-3-3-3-3-3-3----

e|------------------------------------------
B|------------------------------------------
G|–8-8-8-8-8-8-8-8-10–10–10-10-10–10–10-10--
D|–8-8-8-8-8-8-8-8-10-10-10-10-10-10-10-10--
A|–6-6-6-6-6-6-6-6-8--8--8--8--8--8--8--8---
E|------------------------------------------

Fim.

Letra da Música:

Good Charlotte - Waldorf Worldwide

Listen up ´cause there ain´t nothin´ funny, 
I wanna hot girl and a little bit of money, 
I wanna little house where my band can live, 
´Cause we´re tired of movin´ every other weekend 
I wanna go to parties where they got no guns, 
I wanna rock with my band, I wanna have a little fun 
Where thugs and punks and any other type, 
Can sing this song and sing it all night, 

 Chorus 
Everything´s gonna be alright now, everything´s gonna be alright 
Get down stay up all night now, Let´s do this one more time, 
Everything´ll be alright, Everything will be alright, alright 
 Chorus Ends 

All I wanna do is kick the welfare, all I wanna do is get my share 
All I wanna do is kick the welfare, all I wanna do is get my share 
And I don´t wanna run for the president, I just want an honest way to pay my rent 
And I´m tired of the man always shuttin´ us down, 
Tired of my old man ´cause he´s never around 
And I´m tired of eating off of other people´s plates, 
And I don´t look important, so they´re tellin´ me to wait 
Police records said they wouldn´t exist, 
I wanna know the meaning of a Christmas list 
Said all I wanna do is kick the welfare, 
All I wanna do is get my share, 
All I wanna do is make somethin´ from nothin´, 
It´s GC baby and we´re workin´ with somethin´, 

 Chorus 
 Chorus Ends 

We´ll be self-made millionaires, 
These lives we´ll lead without a care, oh yeah, 
And we´ll see what we´ll be 
Everything´s gonna be alright now, 
Everybody say it one more time, 
Everything will be alright, alright, 
We´ll see you when we get there, We´ll see you when we get there, 
On the video, Or the radio, In the magazines, On the movie screens
	  

Full key step upFull key step up
Half key step upHalf key step up
Half key step downHalf key step down
Full key step downFull key step down
Search Paypal
auto scroll beats size up size down change color hide chords drawings
tab show chords e-chords YouTube Clip e-chords hide all tabs e-chords go to top tab