Good Charlotte

home > Good Charlotte

Wadorlf worldwide Tab

Good Charlotte

Difficulty: nolevelnolevel

by Misis

tuner correct add songbook print version text version save to e-mail
chordsukulelecavacokeyboardtabbassdrumsharmonicsflute Guitar Pro
chords

Wadorlf worldwide

  		Good Charlotte - Waldorf Worldwide 
 
Intro 
 
E------------------------------------------------------- 
B--------11----------10-------8------------10----------- 
G-----10---10p-----10--10---8---8h10-10-10----10-------- 
D---8----------x-x--------8----------------------------- 
A------------------------------------------------------- 
D------------------------------------------------------- 
 
Intro II 
 
E-------------------------------------------------------- 
B-------------------------------------------------------- 
G----------------------------10-10-10-8-8-8-x-x-10-10-10- 
D-8-8--8-8------8--8--8--x-x-10-10-10-8-8-8-x-x-10-10-10- 
A-8-8--8-8------8--8--8--x-x-8--8--8--6-6-6-x-x-8--8--8-- 
D-8-8--8-8------8--8--8--x-x----------------------------- 
 
 
Verse 
 
E--6-6--8--8---6-6--8--8---11-11--8--8---6-6--8--8------- 
B--6-6--10-10--8-8--10-10--11-11--10-10--6-6--10-10------ 
G--7-7--10-10--8-8--10-10--12-12--10-10--7-7--10-10------ 
D-------------------------------------------------------- 
A-------------------------------------------------------- 
D-------------------------------------------------------- 
 
Chorus 
 
E------------------------------------------------ 
B------------------------------------------------ 
G----------x-10-10-10-10-x-8-8-8-8-x-10-10-10---- 
D--8-8-8-8-x-10-10-10-10-x-8-8-8-6-x-10-10-10---- 
A--8-8-8-8-x-8--8--8--8--x-6-6-6-6-x-8--8--8----- 
D--8-8-8-8-x------------------------------------- 
 
Verse II 
 
E-------------------------------------------------------- 
B-------10-----8-------8------10--------10------8----10-- 
G----10---10-8---8---8---8-10---10---10----10-8---8--10-- 
D--8---------------8---------------8-----------------8--- 
A-------------------------------------------------------- 
D-------------------------------------------------------- 
 
Bridge 
 
E---------------------------------------|------------------| 
B---------------------------------------|------------------| 
G--8-------10---------------------------|--8-------10------| 
D--8-------10------8------6------5------|--8-------10------| 
A--6-(x8)--8-(x8)--8------6------5------|--6-(x8)--8-(x8)--| 
D------------------8-(x4)-6-(x4)-5-(*4)-|------------------| 
  --------------2x------------------/ 
 
Order 
 
Intro 
Intro II 
Verse 
Chorus 
Verse II 
Verse 
Chorus 
Bridge 
Chorus 

	  

Search Paypal
auto scroll beats size up size down change color hide chords drawings
tab show chords e-chords YouTube Clip e-chords hide all tabs e-chords go to top tab