Good Charlotte

home > Good Charlotte

The young and the hopelss Tab

Good Charlotte

Difficulty: nolevelnolevel

by DiegoPetyk

tuner correct add songbook print version text version save to e-mail
chordsukulelecavacokeyboardtabbassdrumsharmonicsflute Guitar Pro
chords

The young and the hopelss

  		Introdução: 
   
   Guitar 1:Benji 
 
  e|------------------| 
  b|------------------| 
  g|-------5----------| 
  d|-------5--6-6-----| 
  a|----6--3--6-6-----| 
  E|----6-----4-4-----| 
 
 
  Guitar 2: Billy 
  e|---------------------------------------------| 
  b|--------------8----11----9---8---------------| 
  g|------8---8----------------------8---8-------| 
  d|----8---8---8---8-----8----8---8---8---------| 
  a|---------------------------------------------| 
  E|---------------------------------------------| 
 
  e|---------------------------------------------| 
  b|----------------8----11----9-----8-----------| 
  g|------8----8--------------------------8---8--| 
  d|---10---10---10--- 10---10----8----8----8----| 
  a|---------------------------------------------| 
  E|---------------------------------------------| 
 
  e|---------------------6-------------------------| 
  b|----------------8---------9-----8--------------| 
  g|------8----8--------------------------8---8--8-| 
  d|---6----6----6----6-----6----6------6---6----6-| 
  a|-----------------------------------------------| 
  E|-----------------------------------------------| 
 
 
 Enquanto o benji faz a base da int o billy dedilha esse acorde. 
 
 
  Pre Chorus 
 
   Guitar 1:Benji 
 
   C - G#mD# - A# 
  e|-------------------| 
  b|-------------------| 
  g|-------5-----8-----| 
  d|-------5--6--8--8--| 
  a|------ 3--6--6--8--| 
  E|----------4-----6--| 
 
 
  Guitar 2:Billy 
 
 e|--------------------------------------------------------------| 
 b|--4----4----4----4---4----4-----4-----4-----4---4-----4-------| 
 g|----5----5----5-----------------------------------------------| 
 d|-------------------6----6----6-----6--1---1---1----1-----1----| 
 a|--------------------------------------------------------------| 
 E|--------------------------------------------------------------| 
 
 
 
    Refrão 
 Guitar 1:Benji 
 D# - C - G# - A# x2 (A# - C) 
 
 Guitar 2:Billy 
 
 D# - C - G# - A# x2  
 
 e|------------------| 
 b|------------------| 
 g|------------------|Viradinha do fim do Refrão 
 d|------------------| 
 a|--11--10-8-10-6---| 
 E|------------------| 
 
 Repete tudo 2 vezes 
 
  Brigde 
 
 
 Guitar 1:Benji 
 
 C - B - D# 
 
 Guitar 2:Billy 
  
  Harmonicos 
 e|-8-7-6-8-7----------------------------------------------------| 
 b|------------3-------------------------------------------------| 
 g|-----------------3-----------------------------4-3-3----------| 
 d|--------------------------------------------------------------| 
 a|-----------------------6-----------------6-6--------------6---| 
 E|-------------------6-3---4--4-4-3-3-6-6---------------6-3---4-| 
 
 e|----------------------------------------------------------------| 
 b|----------------------------------------------------------------| 
 g|---------------------4--3--3-6-6--------------------------------| 
 d|------------------------3--------6-6----------------------------| 
 a|----------------6-6---------------------------------------------| 
 E|---4-4-3-3-6-6---------------------------4-4--3-3-4-4-6-6-6-6---| 
 
 
 Final   
  
 D# - C - G# - A# x2  
  
 C - B - D# x3 

	  

Full key step upFull key step up
Half key step upHalf key step up
Half key step downHalf key step down
Full key step downFull key step down
Search Paypal
auto scroll beats size up size down change color hide chords drawings
tab show chords e-chords YouTube Clip e-chords hide all tabs e-chords go to top tab