Good Charlotte

home > Good Charlotte

S.O.S. Tab

Good Charlotte

Difficulty: ExpertExpert

by dokinha

tuner correct add songbook print version text version save to e-mail
chordsukulelecavacokeyboardtabbassdrumsharmonicsflute Guitar Pro
chords

S.O.S.

  		First Chorus: 
     Am         F        C                           Am 
eb|--0---0--0---1-1-1----0----0----0----0----0-------0----------------------------------|  
Bb|--1---1--1---1-1-1----1----1----1----1----1-------1----------------------------------|  
Gb|--2---2--2---2-2-2----0----0----0----0----0-------2----------------------------------|  
Db|--2---2--2---3-3-3----2----2----2----2----2-------2----------------------------------|  
Ab|--0---0--0---3-3-3----3----3----3----3----3-------0----------------------------------|  
Eb|-------------1-1-1-------------------------------------------------------------------|  
     Is anybody listenin, can they hear me when I call?  
     Shooting signals in the air, coz I need somebodyís help, 
     I canít make it on my own, so Iím giving up myself, 
     Is anybody listenin? Listenin 
 
Verse with distortion (palm mute):   
     F5                             G5                             A5   
eb|-------------------------------------------------------------------------------------|  
Bb|-------------------------------------------------------------------------------------|  
Gb|-------------------------------------------------------------------------------------|  
Db|-----------3--------------3--------------5--------------5--------------7-------------|  
Ab|-------3-----3--------3-----3--------5-----5--------5-----5--------7-----7-----------|  
Eb|--1--1---1-----1-1--1---1-----1-3--3---3-----3-3--3---3-----3-5--5---5-----5-5-------|  
 
                C5                 B5    
eb|-------------------------------------------------------------------------------------|  
Bb|-------------------------------------------------------------------------------------|  
Gb|-------------------------------------------------------------------------------------|  
Db|-------7---------------10---------------9--------------------------------------------|  
Ab|---7-----7--------10------10--------9-----9------------------------------------------|  
Eb|-5---5-----5-8--8----8-------8-7--7---7-----7----------------------------------------| 
 
Chorus: 
     A5          F5           C5      
eb|-------------------------------------------------------------------------------------|  
Bb|-------------------------------------------------------------------------------------|  
Gb|--2--2--2-2-2--------------5--5--5-5-5--5--5--5-5-5----------------------------------|  
Db|--2--2--2-2-2-3--3--3-3-3--5--5--5-5-5--5--5--5-5-5----------------------------------|  
Ab|--0--0--0-0-0-3--3--3-3-3--3--3--3-3-3--3--3--3-3-3----------------------------------|  
Eb|--------------1--1--1-1-1------------------------------------------------------------|  
   
Bridge: 
     G#5                         A#                         G# 
eb|-------------------------------------------------------------------------------------|  
Bb|-------------------------------------------------------------------------------------|  
Gb|-------------------------------------------------------------------------------------|  
Db|--6-6--6-6-6--6-6-6--6-6-6--6-7-7--7-7-7--7-7-7--7-7-7--7-5-5--5-5-5--5-5-5--5-5-5---|  
Ab|--6-6--6-6-6--6-6-6--6-6-6--6-7-7--7-7-7--7-7-7--7-7-7--7-5-5--5-5-5--5-5-5--5-5-5---|  
Eb|--4-4--4-4-4--4-4-4--4-4-4--4-5-5--5-5-5--5-5-5--5-5-5--5-3-3--3-3-3--3-3-3--3-3-3---|  
 
      F5                          G#5                         A5  
eb|-------------------------------------------------------------------------------------|  
Bb|-------------------------------------------------------------------------------------|  
Gb|-------------------------------------------------------------------------------------|  
Db|-5-3-3--3-3-3--3-3-3--3-3-3--3-6-6--6-6-6--6-6-6--6-6-6--6-7-7--7-7-7--7-7-7--7-7-7--|  
Ab|-5-3-3--3-3-3--3-3-3--3-3-3--3-6-6--6-6-6--6-6-6--6-6-6--6-7-7--7-7-7--7-7-7--7-7-7--|  
Eb|-3-1-1--1-1-1--1-1-1--1-1-1--1-4-4--4-4-4--4-4-4--4-4-4--4-5-5--5-5-5--5-5-5--5-5-5--|  
 
      G5                          G#5                         A5 
eb|-------------------------------------------------------------------------------------|  
Bb|-------------------------------------------------------------------------------------|  
Gb|-------------------------------------------------------------------------------------|  
Db|-7-5-5--5-5-5--5-5-5--5-5-5--5-6-6--6-6-6--6-6-6--6-6-6--6-7-7--7-7-7--7-7-7--7-7-7--|  
Ab|-7-5-5--5-5-5--5-5-5--5-5-5--5-6-6--6-6-6--6-6-6--6-6-6--6-7-7--7-7-7--7-7-7--7-7-7--|  
Eb|-5-3-3--3-3-3--3-3-3--3-3-3--3-4-4--4-4-4--4-4-4--4-4-4--4-5-5--5-5-5--5-5-5--5-5-5--|  
      C5 
eb|-------------------------------------------------------------------------------------|  
Bb|-------------------------------------------------------------------------------------|  
Gb|-------------------------------------------------------------------------------------|  
Db|-7-10-10-10-10-10-10-10-10-10-10-10-10-10-10-10-10-----------------------------------|  
Ab|-7-10-10-10-10-10-10-10-10-10-10-10-10-10-10-10-10-----------------------------------|  
Eb|-5--8--8--8--8--8--8--8--8--8--8--8--8--8--8--8--8-----------------------------------|  
 
Solo: 
    A5       F5      C5                A5           F5       C    
eb|-------------------------------------------------------------------------------------|  
Bb|----------------------------8-6-------------------------------------8-6---6----------|  
Gb|----9-9-9-------9-7-------------9-7---------9-9-9-------9-7-------------9---9--------|  
Db|-10-------10-10---------------------10-7--7-------10-10------------------------------|  
Ab|---------------------10-10------------------------------------10-10------------------|  
Eb|-------------------------------------------------------------------------------------|  
 
    A5          F5               C5          A5          F5           C5    
eb|------------------------------8--8-7-5-3-3--8-8-8-7-7-10-10--10-10-8-7-5-3-3---------|  
Bb|-8p7p5-8p7p5------------------8--8-7-5-3-3--8-8-8-7-7--------------8-7-5-3-3---------|  
Gb|-------------9p7p5-9p7p5--5-9--------------------------------------------------------|  
Db|-------------------------------------------------------------------------------------|  
Ab|-------------------------------------------------------------------------------------|  
Eb|-------------------------------------------------------------------------------------|  
 
First Chorus 
Verse 1 
Chorus 
Verse 2 
Chorus 
Bridge 
Solo 
First Chorus 
	  

Full key step upFull key step up
Half key step upHalf key step up
Half key step downHalf key step down
Full key step downFull key step down
Search Paypal
auto scroll beats size up size down change color hide chords drawings
tab show chords e-chords YouTube Clip e-chords hide all tabs e-chords go to top tab