Good Charlotte

home > Good Charlotte

Say Anything Tab

Good Charlotte

Difficulty: nolevelnolevel

tuner correct add songbook print version text version save to e-mail
chordsukulelecavacokeyboardtabbassdrumsharmonicsflute Guitar Pro
chords

Say Anything

  		They play it tuned down but heres a way to play it in standard.

Verse: Guitar 1
 B        E   
------------------------------------------------------------------------------
------4-----------------------------------------------------------------------
--------------4---------------------------------------------------------------
----4-------------------------------------------------------------------------
-2----------2-----------------------------------------------------------------
---------0--------------------------------------------------------------------
                                                                              
Verse: Guitar 2
 B                E   
------------------------------------------------------------------------------
------------------------------------------------------------------------------
-4-4-4-4-4-4-4-4--------------------------------------------------------------
-4-4-4-4-4-4-4-4--2-2-2-2-2-2-2-2---------------------------------------------
-2-2-2-2-2-2-2-2--2-2-2-2-2-2-2-2---------------------------------------------
------------------0-0-0-0-0-0-0-0---------------------------------------------
                                                                              
Pre Chorus: 
 G#            F#          E 
------------------------------------------------------------------------------
------------------------------------------------------------------------------
------------------------------------------------------------------------------
-6-6-6-6-6-6--4-4-4-4-4-4--2-2-2-2-2-2-2-2-2-2-2------------------------------
-6-6-6-6-6-6--4-4-4-4-4-4--2-2-2-2-2-2-2-2-2-2-2------------------------------
-4-4-4-4-4-4--2-2-2-2-2-2--0-0-0-0-0-0-0-0-0-0-0------------------------------
                                                                              
Chorus:
 B            F#           E
------------------------------------------------------------------------------
------------------------------------------------------------------------------
-4-4-4-4-4-4------------------------------------------------------------------
-4-4-4-4-4-4--4-4-4-4-4-4--2-2-2-2-2-2-2-2-2-2-2------------------------------
-2-2-2-2-2-2--4-4-4-4-4-4--2-2-2-2-2-2-2-2-2-2-2------------------------------
--------------2-2-2-2-2-2--0-0-0-0-0-0-0-0-0-0-0------------------------------
                                                                              
Little lead part into 2nd Verse:

------------------------------------------------------------------------------
------------------------------------------------------------------------------
-4-3-1------------------------------------------------------------------------
-------4-2-1------------------------------------------------------------------
-------------4-6/86-2--------------------------------------------------------
------------------------------------------------------------------------------

_______________________________________________________
Contribuição: Renato Carapiá Brunetti([email protected])
	  

Full key step upFull key step up
Half key step upHalf key step up
Half key step downHalf key step down
Full key step downFull key step down
Search Paypal
auto scroll beats size up size down change color hide chords drawings
tab show chords e-chords YouTube Clip e-chords hide all tabs e-chords go to top tab