Good Charlotte

home > Good Charlotte

Riot Girl Tab

Good Charlotte

Difficulty: nolevelnolevel

tuner correct add songbook print version text version save to e-mail
chordsukulelecavacokeyboardtabbassdrumsharmonicsflute Guitar Pro
chords

Riot Girl

  		Introdução
e|---------|-------------------------------|        e|-----------
b|---------|4443333-1--1---4443333-1--1----|        b|-----------
g|-77-8-10-|---------33-333---------33-333-|x4     :g|-77-8-10---
d|-77-8-10-|-------------------------------|        d|-77-8-10---
a|-55-6--8-|-------------------------------|        a|-55-6--8---
e|---------|-------------------------------|        e|-----------

Verso
e|-----------------------------------------------------
b|-----------------------------------------------------
g|----------88888888-1010101010101010-88888888-77-8-10-
d|-88888888-88888888-1010101010101010-88888888-77-8-10-
a|-88888888-66666666--8-8-8-8-8-8-8-8-66666666-55-6--8-
e|-66666666--------------------------------------------
p.m...........................................

Pre-Refrão:
e|---------------------------------------------
b|---------------------------------------------
g|----------88888888-1010101010101010-88888888-
d|-88888888-88888888-1010101010101010-88888888-x2
a|-88888888-66666666--8-8-8-8-8-8-8-8-66666666-
e|-66666666------------------------------------

Refrão:
e|----------------------------------------------------
b|----------------------------------------------------
g|----------1010101010101010-88888888-121212-10101010-
d|-88888888-1010101010101010-88888888-121212-10101010-x2
a|-88888888-8-8-8-8-8-8-8-8--66666666-101010--8-8-8-8-
e|-66666666-------------------------------------------

Repetir Introdução

Ponte:
e|----------
b|----------
g|-12~10~8~-
d|-12~10~8~-x4
a|-10~-8~6~-
e|----------

Repetir Refrão.

Fim.
	  

Search Paypal
auto scroll beats size up size down change color hide chords drawings
tab show chords e-chords YouTube Clip e-chords hide all tabs e-chords go to top tab