Good Charlotte

home > Good Charlotte

My Bloody Valentine Tab

Good Charlotte

Difficulty: BeginnerBeginner

tuner correct add songbook print version text version save to e-mail
chordsukulelecavacokeyboardtabbassdrumsharmonicsflute Guitar Pro
chords

My Bloody Valentine

  		Introdução (2x)
e---------------
B------------6--
G------9-----7--
D--7---9--4--7--
A--7---7--4--5--
E--5------2-----
Oh my love...

Verso (2x)
e---------------------
B------------------------
G------------------------
D---7------4------2------
A---7(7x)--4(7x)--2(4x)--
E---5------2------0------
I ripped out his throat...

Ponte para o Refrão (2x)
e----------------------------
B----------------------------
G--------6----7------------------
D--9-----6(1x)7(4x)--4------2----
A--9(4x)-4----5------4(4x)--2(4x)
E--7-----------------2------0----
You morn the death.....

Refrão
e------------------------------
B------------------------------
G-----------------------7------
D--7------2------4------7(7x)--
A--7(7x)--2(7x)--4(7x)--5------
E--5------0------2-------------
Oh my love please dont cry...
	  

Search Paypal
auto scroll beats size up size down change color hide chords drawings
tab show chords e-chords YouTube Clip e-chords hide all tabs e-chords go to top tab