Good Charlotte

home > Good Charlotte

Movin' On Tab

Good Charlotte

Difficulty: nolevelnolevel

tuner correct add songbook print version text version save to e-mail
chordsukulelecavacokeyboardtabbassdrumsharmonicsflute Guitar Pro
chords

Movin' On

  		Intro:

B—-16-16-18-16-16-16-15-15-
G—-15-15-15-15-15-15-15-15- Play 2X

Play this on top of it:
G|--8-----------------8---------------------8-------------8----------
D|--8-----------------8-8--6-----------6-8--8-------------8-8—-6-----
A|--6-----------------6-8--6-----------6-8--6-------------6-8-—6-----
E|----------------------6--4-----------4-6------------------6-—4-----

Verse 1: PALM-MUTED, Play 2X

G|--88-888-888-888-855-555-555-555-5--------------------------------
D|--88-888-888-888-855-555-555-555-566-666-666-666-688-888-888-888--
A--66-666-666-666-633-333-333-333-366-666-666-666-688-888-888-888--
E|----------------------------------44-444-444-444-466-666-666-666—-
When I think about my life, I wonder if I will survive to live to 
see 25 or will I just fall? I call my friends, they just keep dying
People ‘round me always crying, in this place that I like to call my
home.

Pre-Chorus: 
   Clean            distorted      clean           distorted 
G|------------------8--88--8-8-88-------------------8—-88--8-8-88---
D|--6-------8-------8--88--8-8-88---6-------8-------8—-88--8-8-88---
A|--6-------8-------6--66--6-6-66---6-------8-------6—-66-—6-6-66---
E|--4-------6-----------------------4-------6-----------------------
Not everybody knows but everybody goes to a better place; and not
everybody knows that everybody could be livin’ their last days

I don’t know the strum pattern to the rest of the Pre-Chorus, but 
here are the power chords:
        Ab5             Bb5              Eb5        C5
But the hard times will come, and we’ll keep moving on
             Ab5        Bb5            Eb5
We’re movin’ on------------KEEP MOVIN’ ON!

Chorus 1: Starts with “ON!” in the Pre-chorus

G|--8--88--88--88-------------------8--88--88--88-------------------
D|--8--88--88--88-8-6--66--66--66-8-8--88--88--88-8-6--66--66--66---
A|--6--66--66--66-8-6--66--66--66-8-6--66--66--66-8-6--66--66--66---
E|----------------6-4--44--44--44-6---------------6-4--44--44--44---
LIFE! HOPE! TRUTH! TRUST! FAITH! PRIDE! LOVE! LUST! ALL MAKE UP THE 
THINGS WE’VE LOST, BUT THINGS WE’VE GAINED WE’LL TAKE WITH US! 

Verse 2: Same chords as other verse
And I'm so proud of these two hands 
To make myself a better man 
I wonder if I'll ever see the end of this. 
With all this rain it just keeps fallin 
On my head and now I'm calling 
Out to someone else to help me 
Make it through. 

PRE-CHORUS

Chorus 2: Same chords as other chorus
Life. Hope. Truth. Trust. Faith. Pride. Love. Lust. Pain. Hate. 
Lies. Kill. Laugh. Cry. Live. Die. 
Some friends become enemies some friends become your family. 
Make the best with what you're given 
This ain't dyin, this is livin. 

Bridge: palm-muted Play repeatedly throughout the bridge

G|--------888---88--------888---88--
D|-----888---888--88---888---888--88
A|--666-------------666------------- 
Said we're movin on 
And we got nothing to prove 
To anyone 
Cause we'll get through 
We're movin on and on and on and on and on and on and on and on and
On and on and on and on and on and on and on (KEEP MOVIN’ ON!) 

Play chorus 2

Play intro 

Here are the power chords just in case you don’t know ‘em.  
	  

Full key step upFull key step up
Half key step upHalf key step up
Half key step downHalf key step down
Full key step downFull key step down
Search Paypal
auto scroll beats size up size down change color hide chords drawings
tab show chords e-chords YouTube Clip e-chords hide all tabs e-chords go to top tab