Good Charlotte

home > Good Charlotte

Life Can't Get Much Better Tab

Good Charlotte

Difficulty: nolevelnolevel

by joaoewerton

tuner correct add songbook print version text version save to e-mail
chordsukulelecavacokeyboardtabbassdrumsharmonicsflute Guitar Pro
chords

Life Can't Get Much Better

  		
Verse 

          Eb                  Eb                  Eb                  Eb 
e|--------6-------6--|--------6-------6--|--------6-------6--|--------6-------6--| 
B|----8-------8------|----8-------8------|----8-------8------|----8-------8------| 
G|-------------------|-------------------|-------------------|-------------------| 
D|-------------------|--6---6---6---6----|-------------------|--6---6---6---6----|  
A|--6---6---6---6----|-------------------|--6---6---6---6----|-------------------| 
E|-------------------|-------------------|-------------------|-------------------| 
     One promise          we made it          We said we'd       never break it 
  
          
          Eb                  Eb                  Eb                  Eb 
e|--------6-------6--|--------6-------6--|--------6-------6--|--------6-------6--| 
B|----8-------8------|----8-------8------|----8-------8------|----8-------8------| 
G|-------------------|-------------------|-------------------|-------------------| 
D|-------------------|--6---6---6---6----|-------------------|--6---6---6---6----|  
A|--6---6---6---6----|-------------------|--6---6---6---6----|-------------------| 
E|-------------------|-------------------|-------------------|-------------------| 
    Don't look down        be honest        tell me has it          changed? 


          Eb                  Eb                  Eb                  Eb 
e|--------6-------6--|--------6-------6--|--------6-------6--|--------6-------6--| 
B|----8-------8------|----8-------8------|----8-------8------|----8-------8------| 
G|-------------------|-------------------|-------------------|-------------------| 
D|-------------------|--6---6---6---6----|-------------------|--6---6---6---6----|  
A|--6---6---6---6----|-------------------|--6---6---6---6----|-------------------| 
E|-------------------|-------------------|-------------------|-------------------| 
     One life that       we're living       we're somewhere        unforgiven 


          Eb                  Eb                  Eb                  Eb 
e|--------6-------6--|--------6-------6--|--------6-------6--|--------6-------6--| 
B|----8-------8------|----8-------8------|----8-------8------|----8-------8------| 
G|-------------------|-------------------|-------------------|-------------------| 
D|-------------------|--6---6---6---6----|-------------------|--6---6---6---6----|  
A|--6---6---6---6----|-------------------|--6---6---6---6----|-------------------| 
E|-------------------|-------------------|-------------------|-------------------| 
    Don't look down       be real now        tell me has it         changed? 


         Cm                   Eb                  Ab                  Ab 
e|--------3-------3--|-------------------|-------------------|-------------------| 
B|----4-------4------|--------8-------8--|--------8-------8--|--------8-------8--| 
G|--5---5---5---5----|----8-------8------|----8-------8------|----8-------8------| 
D|-------------------|--8---8---8---8----|--6---6---6---6----|--6---6---6---6----| 
A|-------------------|-------------------|-------------------|-------------------| 
E|-------------------|-------------------|-------------------|-------------------| 
     I just wanna        see you laugh          again... 
  

 Chorus 

       Eb                   Bb               Cm                   Ab 
e|--6------6--------|--6---6---6-6-----|--3------3--------|--4---4---4-4-----| 
B|--8------8--------|--6---6---6-6-----|--4------4--------|--4---4---4-4-----| 
G|--8------8--------|--7---7---7-7-----|--5------5--------|--5---5---5-5-----|  
D|--8------8--------|--8---8---8-8-----|--5------5--------|--6---6---6-6-----|  
A|--6------6--------|--8---8---8-8-----|--3------3--------|--6---6---6-6-----| 
E|--6------6--------|--6---6---6-6-----|--3------3--------|--4---4---4-4-----| 
     Life can't       get much better      Let's just        stay together 


       Eb                   Bb               Cm                   Ab 
e|--6------6--------|--6---6---6-6-----|--3------3--------|--4---4---4-4-4-4-| 
B|--8------8--------|--6---6---6-6-----|--4------4--------|--4---4---4-4-4-4-| 
G|--8------8--------|--7---7---7-7-----|--5------5--------|--5---5---5-5-5-5-|  
D|--8------8--------|--8---8---8-8-----|--5------5--------|--6---6---6-6-6-6-|  
A|--6------6--------|--8---8---8-8-----|--3------3--------|--6---6---6-6-6-6-| 
E|--6------6--------|--6---6---6-6-----|--3------3--------|--4---4---4-4-4-4-| 
   these scars are      tokens of           promises            broken 


       Eb                   Bb               Cm                   Ab 
e|--6--6--6--6-6--|--6-6-6----6-6-6-6--|--3--3--3--3-3--|--4-4-4----4-4-4-4--| 
B|--8--8--8--8-8--|--6-6-6----6-6-6-6--|--4--4--4--4-4--|--4-4-4----4-4-4-4--| 
G|--8--8--8--8-8--|--7-7-7----7-7-7-7--|--5--5--5--5-5--|--5-5-5----5-5-5-5--| 
D|--8--8--8--8-8--|--8-8-8----8-8-8-8--|--5--5--5--5-5--|--6-6-6----6-6-6-6--|  
A|--6--6--6--6-6--|--8-8-8----8-8-8-8--|--3--3--3--3-3--|--6-6-6----6-6-6-6--| 
E|--6--6--6--6-6--|--6-6-6----6-6-6-6--|--3--3--3--3-3--|--4-4-4----4-4-4-4--| 
     Life can't        get much better     let's just         stay forever 


       Eb                   Bb               Cm                   Ab 
e|--6--6--6--6-6--|--6-6-6----6-6-6-6--|--3--3--3--3-3--|--4-4-4----4-4-4-4--| 
B|--8--8--8--8-8--|--6-6-6----6-6-6-6--|--4--4--4--4-4--|--4-4-4----4-4-4-4--| 
G|--8--8--8--8-8--|--7-7-7----7-7-7-7--|--5--5--5--5-5--|--5-5-5----5-5-5-5--| 
D|--8--8--8--8-8--|--8-8-8----8-8-8-8--|--5--5--5--5-5--|--6-6-6----6-6-6-6--|  
A|--6--6--6--6-6--|--8-8-8----8-8-8-8--|--3--3--3--3-3--|--6-6-6----6-6-6-6--| 
E|--6--6--6--6-6--|--6-6-6----6-6-6-6--|--3--3--3--3-3--|--4-4-4----4-4-4-4--| 
    We've got to          hold on          We've waited         so long 


 Verse 

          Eb                  Eb                  Eb                  Eb 
e|--------6-------6--|--------6-------6--|--------6-------6--|--------6-------6--| 
B|----8-------8------|----8-------8------|----8-------8------|----8-------8------| 
G|-------------------|-------------------|-------------------|-------------------| 
D|-------------------|--6---6---6---6----|-------------------|--6---6---6---6----|  
A|--6---6---6---6----|-------------------|--6---6---6---6----|-------------------| 
E|-------------------|-------------------|-------------------|-------------------| 


          Eb                  Eb                  Eb                  Eb 
e|--------6-------6--|--------6-------6--|--------6-------6--|--------6-------6--| 
B|----8-------8------|----8-------8------|----8-------8------|----8-------8------| 
G|-------------------|-------------------|-------------------|-------------------| 
D|-------------------|--6---6---6---6----|-------------------|--6---6---6---6----|  
A|--6---6---6---6----|-------------------|--6---6---6---6----|-------------------| 
E|-------------------|-------------------|-------------------|-------------------| 
    If I knew we'd end up this way, do you really think I wouldn't have tried? 


          Eb                  Eb                  Eb                  Eb 
e|--------6-------6--|--------6-------6--|--------6-------6--|--------6-------6--| 
B|----8-------8------|----8-------8------|----8-------8------|----8-------8------| 
G|-------------------|-------------------|-------------------|-------------------| 
D|-------------------|--6---6---6---6----|-------------------|--6---6---6---6----|  
A|--6---6---6---6----|-------------------|--6---6---6---6----|-------------------| 
E|-------------------|-------------------|-------------------|-------------------| 
     If I knew it would break us down, do you really think I would've lied? 


          Eb                  Eb                  Eb                  Eb 
e|--------6-------6--|--------6-------6--|--------6-------6--|--------6-------6--| 
B|----8-------8------|----8-------8------|----8-------8------|----8-------8------| 
G|-------------------|-------------------|-------------------|-------------------| 
D|-------------------|--6---6---6---6----|-------------------|--6---6---6---6----|  
A|--6---6---6---6----|-------------------|--6---6---6---6----|-------------------| 
E|-------------------|-------------------|-------------------|-------------------| 
      Now I try to forget the past, but it's all that's on my mind 


          Eb                  Eb                  Eb                  Eb 
e|--------6-------6--|--------6-------6--|--------6-------6--|--------6-------6--| 
B|----8-------8------|----8-------8------|----8-------8------|----8-------8------| 
G|-------------------|-------------------|-------------------|-------------------| 
D|-------------------|--6---6---6---6----|-------------------|--6---6---6---6----|  
A|--6---6---6---6----|-------------------|--6---6---6---6----|-------------------| 
E|-------------------|-------------------|-------------------|-------------------| 
    I'd give it all if I could get you back, I'd give it all if you were mine 


         Cm                   Eb                  Ab                  Ab 
e|--------3-------3--|-------------------|-------------------|-------------------| 
B|----4-------4------|--------8-------8--|--------8-------8--|--------8-------8--| 
G|--5---5---5---5----|----8-------8------|----8-------8------|----8-------8------| 
D|-------------------|--8---8---8---8----|--6---6---6---6----|--6---6---6---6----| 
A|-------------------|-------------------|-------------------|-------------------| 
E|-------------------|-------------------|-------------------|-------------------| 
     I just wanna see you here sometiiiiiiime,                             'cause 

  
Chorus  
(with distortion) 

       Eb                   Bb               Cm                   Ab 
e|--6------6--------|--6---6---6-6-----|--3------3--------|--4---4---4-4-----| 
B|--8------8--------|--6---6---6-6-----|--4------4--------|--4---4---4-4-----| 
G|--8------8--------|--7---7---7-7-----|--5------5--------|--5---5---5-5-----|  
D|--8------8--------|--8---8---8-8-----|--5------5--------|--6---6---6-6-----|  
A|--6------6--------|--8---8---8-8-----|--3------3--------|--6---6---6-6-----| 
E|--6------6--------|--6---6---6-6-----|--3------3--------|--4---4---4-4-----| 
     Life can't       get much better      Let's just        stay together 


       Eb                   Bb               Cm                   Ab 
e|--6------6--------|--6---6---6-6-----|--3------3--------|--4---4---4-4-4-4-| 
B|--8------8--------|--6---6---6-6-----|--4------4--------|--4---4---4-4-4-4-| 
G|--8------8--------|--7---7---7-7-----|--5------5--------|--5---5---5-5-5-5-|  
D|--8------8--------|--8---8---8-8-----|--5------5--------|--6---6---6-6-6-6-|  
A|--6------6--------|--8---8---8-8-----|--3------3--------|--6---6---6-6-6-6-| 
E|--6------6--------|--6---6---6-6-----|--3------3--------|--4---4---4-4-4-4-| 
   these scars are      tokens of           promises            broken 


       Eb                   Bb               Cm                   Ab 
e|--6--6--6--6-6--|--6-6-6----6-6-6-6--|--3--3--3--3-3--|--4-4-4----4-4-4-4--| 
B|--8--8--8--8-8--|--6-6-6----6-6-6-6--|--4--4--4--4-4--|--4-4-4----4-4-4-4--| 
G|--8--8--8--8-8--|--7-7-7----7-7-7-7--|--5--5--5--5-5--|--5-5-5----5-5-5-5--| 
D|--8--8--8--8-8--|--8-8-8----8-8-8-8--|--5--5--5--5-5--|--6-6-6----6-6-6-6--|  
A|--6--6--6--6-6--|--8-8-8----8-8-8-8--|--3--3--3--3-3--|--6-6-6----6-6-6-6--| 
E|--6--6--6--6-6--|--6-6-6----6-6-6-6--|--3--3--3--3-3--|--4-4-4----4-4-4-4--| 
     Life can't        get much better     let's just         stay forever 


       Eb                   Bb               Cm                   Ab 
e|--6--6--6--6-6--|--6-6-6----6-6-6-6--|--3--3--3--3-3--|--4-4-4----4-4-4-4--| 
B|--8--8--8--8-8--|--6-6-6----6-6-6-6--|--4--4--4--4-4--|--4-4-4----4-4-4-4--| 
G|--8--8--8--8-8--|--7-7-7----7-7-7-7--|--5--5--5--5-5--|--5-5-5----5-5-5-5--| 
D|--8--8--8--8-8--|--8-8-8----8-8-8-8--|--5--5--5--5-5--|--6-6-6----6-6-6-6--|  
A|--6--6--6--6-6--|--8-8-8----8-8-8-8--|--3--3--3--3-3--|--6-6-6----6-6-6-6--| 
E|--6--6--6--6-6--|--6-6-6----6-6-6-6--|--3--3--3--3-3--|--4-4-4----4-4-4-4--| 
    We've got to          hold on          We've waited         so long 

  
Bridge 

        Eb                 Bb                 Eb                 Ab 
e|--6--6--6----6--|--6-6-6----6-6-6-6--|--6--6--6----6--|--4-4-4----4-4-4-4--| 
B|--8--8--8----8--|--6-6-6----6-6-6-6--|--8--8--8----8--|--4-4-4----4-4-4-4--| 
G|--8--8--8----8--|--7-7-7----7-7-7-7--|--8--8--8----8--|--5-5-5----5-5-5-5--| 
D|--8--8--8----8--|--8-8-8----8-8-8-8--|--8--8--8----8--|--6-6-6----6-6-6-6--|  
A|--6--6--6----6--|--8-8-8----8-8-8-8--|--6--6--6----6--|--6-6-6----6-6-6-6--| 
E|--6--6--6----6--|--6-6-6----6-6-6-6--|--6--6--6----6--|--4-4-4----4-4-4-4--| 
    Don't give        up         on       us,       on      us.      Don't       


        Eb                 Bb                 Eb                 Ab 
e|--6--6--6----6--|--6-6-6----6-6-6-6--|--6--6--6----6--|--4-4-4----4-4-4-4--| 
B|--8--8--8----8--|--6-6-6----6-6-6-6--|--8--8--8----8--|--4-4-4----4-4-4-4--| 
G|--8--8--8----8--|--7-7-7----7-7-7-7--|--8--8--8----8--|--5-5-5----5-5-5-5--| 
D|--8--8--8----8--|--8-8-8----8-8-8-8--|--8--8--8----8--|--6-6-6----6-6-6-6--|  
A|--6--6--6----6--|--8-8-8----8-8-8-8--|--6--6--6----6--|--6-6-6----6-6-6-6--| 
E|--6--6--6----6--|--6-6-6----6-6-6-6--|--6--6--6----6--|--4-4-4----4-4-4-4--| 
    give       up     on        us,       on        us.    Yea-eaahhh!! 


        Eb                 Bb                 Eb                 Ab 
e|--6--6--6--6-6--|--6-6-6----6-6-6-6--|--6--6--6--6-6--|--4-4-4----4-4-4-4--| 
B|--8--8--8--8-8--|--6-6-6----6-6-6-6--|--8--8--8--8-8--|--4-4-4----4-4-4-4--| 
G|--8--8--8--8-8--|--7-7-7----7-7-7-7--|--8--8--8--8-8--|--5-5-5----5-5-5-5--| 
D|--8--8--8--8-8--|--8-8-8----8-8-8-8--|--8--8--8--8-8--|--6-6-6----6-6-6-6--|  
A|--6--6--6--6-6--|--8-8-8----8-8-8-8--|--6--6--6--6-6--|--6-6-6----6-6-6-6--| 
E|--6--6--6--6-6--|--6-6-6----6-6-6-6--|--6--6--6--6-6--|--4-4-4----4-4-4-4--| 
Tell me that you meant every word you said In the text you sent I was going to bed 


        Eb                 Bb                 Eb                 Ab 
e|--6--6--6--6-6--|--6-6-6----6-6-6-6--|--6--6--6--6-6--|--4-4-4----4-4-4-4--| 
B|--8--8--8--8-8--|--6-6-6----6-6-6-6--|--8--8--8--8-8--|--4-4-4----4-4-4-4--| 
G|--8--8--8--8-8--|--7-7-7----7-7-7-7--|--8--8--8--8-8--|--5-5-5----5-5-5-5--| 
D|--8--8--8--8-8--|--8-8-8----8-8-8-8--|--8--8--8--8-8--|--6-6-6----6-6-6-6--|  
A|--6--6--6--6-6--|--8-8-8----8-8-8-8--|--6--6--6--6-6--|--6-6-6----6-6-6-6--| 
E|--6--6--6--6-6--|--6-6-6----6-6-6-6--|--6--6--6--6-6--|--4-4-4----4-4-4-4--| 
The girl with the blue eyes ...blue eyes,It ain't right   ...with me last night 


Chorus 
(with distortion) 

       Eb                   Bb               Cm                   Ab 
e|--6------6--------|--6---6---6-6-----|--3------3--------|--4---4---4-4-----| 
B|--8------8--------|--6---6---6-6-----|--4------4--------|--4---4---4-4-----| 
G|--8------8--------|--7---7---7-7-----|--5------5--------|--5---5---5-5-----|  
D|--8------8--------|--8---8---8-8-----|--5------5--------|--6---6---6-6-----|  
A|--6------6--------|--8---8---8-8-----|--3------3--------|--6---6---6-6-----| 
E|--6------6--------|--6---6---6-6-----|--3------3--------|--4---4---4-4-----| 
     Life can't       get much better      Let's just        stay together 


       Eb                   Bb               Cm                   Ab 
e|--6------6--------|--6---6---6-6-----|--3------3--------|--4---4---4-4-4-4-| 
B|--8------8--------|--6---6---6-6-----|--4------4--------|--4---4---4-4-4-4-| 
G|--8------8--------|--7---7---7-7-----|--5------5--------|--5---5---5-5-5-5-|  
D|--8------8--------|--8---8---8-8-----|--5------5--------|--6---6---6-6-6-6-|  
A|--6------6--------|--8---8---8-8-----|--3------3--------|--6---6---6-6-6-6-| 
E|--6------6--------|--6---6---6-6-----|--3------3--------|--4---4---4-4-4-4-| 
   these scars are      tokens of           promises            broken 


       Eb                   Bb               Cm                   Ab 
e|--6--6--6--6-6--|--6-6-6----6-6-6-6--|--3--3--3--3-3--|--4-4-4----4-4-4-4--| 
B|--8--8--8--8-8--|--6-6-6----6-6-6-6--|--4--4--4--4-4--|--4-4-4----4-4-4-4--| 
G|--8--8--8--8-8--|--7-7-7----7-7-7-7--|--5--5--5--5-5--|--5-5-5----5-5-5-5--| 
D|--8--8--8--8-8--|--8-8-8----8-8-8-8--|--5--5--5--5-5--|--6-6-6----6-6-6-6--|  
A|--6--6--6--6-6--|--8-8-8----8-8-8-8--|--3--3--3--3-3--|--6-6-6----6-6-6-6--| 
E|--6--6--6--6-6--|--6-6-6----6-6-6-6--|--3--3--3--3-3--|--4-4-4----4-4-4-4--| 
     Life can't        get much better     let's just         stay forever 


       Eb                   Bb               Cm                   Ab 
e|--6--6--6--6-6--|--6-6-6----6-6-6-6--|--3--3--3--3-3--|--4-4-4----4-4-4-4--| 
B|--8--8--8--8-8--|--6-6-6----6-6-6-6--|--4--4--4--4-4--|--4-4-4----4-4-4-4--| 
G|--8--8--8--8-8--|--7-7-7----7-7-7-7--|--5--5--5--5-5--|--5-5-5----5-5-5-5--| 
D|--8--8--8--8-8--|--8-8-8----8-8-8-8--|--5--5--5--5-5--|--6-6-6----6-6-6-6--|  
A|--6--6--6--6-6--|--8-8-8----8-8-8-8--|--3--3--3--3-3--|--6-6-6----6-6-6-6--| 
E|--6--6--6--6-6--|--6-6-6----6-6-6-6--|--3--3--3--3-3--|--4-4-4----4-4-4-4--| 
    We've got to          hold on          We've waited         so long 
     

       Eb                   Bb               Cm                   Ab 
e|--6--6--6----6--|--6-6-6----6-6-6----|--3--3--3----3--|--4-4-4----4-4-4----| 
B|--8--8--8----8--|--6-6-6----6-6-6----|--4--4--4----4--|--4-4-4----4-4-4----| 
G|--8--8--8----8--|--7-7-7----7-7-7----|--5--5--5----5--|--5-5-5----5-5-5----| 
D|--8--8--8----8--|--8-8-8----8-8-8----|--5--5--5----5--|--6-6-6----6-6-6----|  
A|--6--6--6----6--|--8-8-8----8-8-8----|--3--3--3----3--|--6-6-6----6-6-6----| 
E|--6--6--6----6--|--6-6-6----6-6-6----|--3--3--3----3--|--4-4-4----4-4-4----| 
    Ohhhhhhh.... 


       Eb                   Bb               Cm                   Ab 
e|--6--6--6----6--|--6-6-6----6-6-6----|--3--3--3----3--|--4-4-4----4-4-4----| 
B|--8--8--8----8--|--6-6-6----6-6-6----|--4--4--4----4--|--4-4-4----4-4-4----| 
G|--8--8--8----8--|--7-7-7----7-7-7----|--5--5--5----5--|--5-5-5----5-5-5----| 
D|--8--8--8----8--|--8-8-8----8-8-8----|--5--5--5----5--|--6-6-6----6-6-6----|  
A|--6--6--6----6--|--8-8-8----8-8-8----|--3--3--3----3--|--6-6-6----6-6-6----| 
E|--6--6--6----6--|--6-6-6----6-6-6----|--3--3--3----3--|--4-4-4----4-4-4----| 
    Ohhhhhhh.... 


        Eb                 Bb                 Eb                 Ab 
e|--6--6--6--6-6--|--6-6-6----6-6-6-6--|--6--6--6--6-6--|--4-4-4----4-4-4-4--| 
B|--8--8--8--8-8--|--6-6-6----6-6-6-6--|--8--8--8--8-8--|--4-4-4----4-4-4-4--| 
G|--8--8--8--8-8--|--7-7-7----7-7-7-7--|--8--8--8--8-8--|--5-5-5----5-5-5-5--| 
D|--8--8--8--8-8--|--8-8-8----8-8-8-8--|--8--8--8--8-8--|--6-6-6----6-6-6-6--|  
A|--6--6--6--6-6--|--8-8-8----8-8-8-8--|--6--6--6--6-6--|--6-6-6----6-6-6-6--| 
E|--6--6--6--6-6--|--6-6-6----6-6-6-6--|--6--6--6--6-6--|--4-4-4----4-4-4-4--| 
Tell me that you meant every word you said In the text you sent I was going to bed 


        Eb                 Bb                 Eb                 Ab 
e|--6--6--6--6-6--|--6-6-6----6-6-6-6--|--6--6--6--6-6--|--4-4-4----4-4-4-4--| 
B|--8--8--8--8-8--|--6-6-6----6-6-6-6--|--8--8--8--8-8--|--4-4-4----4-4-4-4--| 
G|--8--8--8--8-8--|--7-7-7----7-7-7-7--|--8--8--8--8-8--|--5-5-5----5-5-5-5--| 
D|--8--8--8--8-8--|--8-8-8----8-8-8-8--|--8--8--8--8-8--|--6-6-6----6-6-6-6--|  
A|--6--6--6--6-6--|--8-8-8----8-8-8-8--|--6--6--6--6-6--|--6-6-6----6-6-6-6--| 
E|--6--6--6--6-6--|--6-6-6----6-6-6-6--|--6--6--6--6-6--|--4-4-4----4-4-4-4--| 
The girl with the blue eyes ...blue eyes,It ain't right   ...with me last night 


        Eb  
e|--6-------------| 
B|--8-------------| 
G|--8-------------| 
D|--8-------------| 
A|--6-------------| 
E|--6-------------| 
Life can't get much better 
Let's just stay together 
These scars are tokens of promises broken 
	  

Full key step upFull key step up
Half key step upHalf key step up
Half key step downHalf key step down
Full key step downFull key step down
Search Paypal
auto scroll beats size up size down change color hide chords drawings
tab show chords e-chords YouTube Clip e-chords hide all tabs e-chords go to top tab