Good Charlotte

home > Good Charlotte

Let Me Go Tab

Good Charlotte

Difficulty: nolevelnolevel

by gustsilva

tuner correct add songbook print version text version save to e-mail
chordsukulelecavacokeyboardtabbassdrumsharmonicsflute Guitar Pro
chords

Let Me Go

  		Baixo Faz Intro e fica assim quase direto... 

 
A|---3-3------------- 
E|-------1-1/5--3---- 
 

Guitarra 1 Intro: 
 
    C9    F9    A9   G 
G|--5---------------------- 
d|--5-----3----7-----5----- 
a|--3-----3----7-----5----- 
E|--------1----5-----3----- 
 


Solo Guitarra 2 Intro: 
 
e|-----------8>>------ 
b|-------8>>---------- 
 
(>> empurrar a corda) 

(Soh o Baixo)    Down in the streets outside of Washington DC 
                 I wasted all my time and you were there with me 
(Entra Guitarra) Back then it meant so much to have you by my side 
                 I always had your back and you always had mine 
 
 C9    F9    A9   G 
G|--5---------------------- 
d|--5-----3----7-----5----- 
a|--3-----3----7-----5----- 
E|--------1----5-----3----- 
 

Chorus (Continua) 
Sayin let me go, have some fun 
Well my decision sucks to you,  

G|-------------- 
d|----3-----5---  
a|----3-----5---  
E|----1-----3---  
  F     G 
but I'm so young 

(Intro de novo 1x 
  
 e igual o primeiro Verso) 

We'd hang out late and fight, just trying to have fun 
We were such punk ass kids but we knew everyone 
And who could see through such blazed up bloodshot eyes 
There was a plan for us one day we'd realize 

Chorus (DE Novo) 

 
B|---1---1--1---1--1---1-- (Continuamente 
g|-0---0---0--0--0---0---- Ateh a metade) 
 

 
e|-----------8>>------ 
b|-------8>>---------- 
 

na na na na na na na x 11 (Dpois da metade Base da Intro) 

Chorus 2x! 
	  

Full key step upFull key step up
Half key step upHalf key step up
Half key step downHalf key step down
Full key step downFull key step down
Search Paypal
auto scroll beats size up size down change color hide chords drawings
tab show chords e-chords YouTube Clip e-chords hide all tabs e-chords go to top tab