Good Charlotte

home > Good Charlotte

I just wanna Live (Acoustic_Tab English) Tab

Good Charlotte

Difficulty: nolevelnolevel

by dr%5Fdark

tuner correct add songbook print version text version save to e-mail
chordsukulelecavacokeyboardtabbassdrumsharmonicsflute Guitar Pro
chords

I just wanna Live (Acoustic_Tab English)

  		 
 
Well... Itīs me again (D!3g0//[email protected])  
This is my first Upload English tabs of a very good punk group, this is a really good song and 
must be in the internet, the tab will not be the same as the real song, because when I was doing this tab 
I was listening and writing at the same time... I mean... I make this... not copy. 
  
Very Well, Check it... 
 
INTRO: 
e|----------------------------------------------------| 
B|-----x------x-----x-----------------------------------| 
G|-----x------x-----x------------------------------------| 
D|-----x------x-----x------------------------------------| 
A|-----x------x-----x------------------------------------| 
E|----------------------------------------------------| 
 
VERSO: 
e|----------------------------------------------------| 
B|----------------------------------------------------| 
G|------x-x-x-x-x----x-x-x-x-x---------------------------------| 
D|------8-8-8-8-8----6-6-6-6-6---------------------------| 
A|------8-8-8-8-8----6-6-6-6-6---------------------------------| 
E|------6-6-6-6-6----4-4-4-4-4---------------------------------| 
I need an alarm system in my house 
 
e|----------------------------------------------------| 
B|----------------------------------------------------| 
G|---x-x-x-x-x------------------------------------------------| 
D|---5-5-5-5-5----------------------------------------------------| 
A|---5-5-5-5-5---------------------------------------------------| 
E|---3-3-3-3-3-----------------------------------------------------| 
So I know when p-eople are creepin about 
 
e|----------------------------------------------------| 
B|----------------------------------------------------| 
G|-----------------x-x-x-x-x-----------------------------------------| 
D|-----------------3-3-3-3-3------------------------------------------| 
A|-----------------3-3-3-3-3------------------------------------------| 
E|-----------------1-1-1-1-1------------------------------------------| 
These people are freakin me out (these days) 
 
--->(SE REPITE LO ANTERIOR)<---- 
It's getting hectic everywhere that I go 
They won't leave me alone 
Theres things they all wanna know 
 
PRE-CORO: 
e|----------------------------------------------------| 
B|----------------------------------------------------| 
G|-x-x-x-x-x-x-x-x-x-x-x-x-x-x-x-x-x-x-x-x-x------------------------------| 
D|-8-8-8-8-8-8-8-8-8-8-8-8-6-6-6-6-6-6-6-6-6--------------------| 
A|-8-8-8-8-8-8-8-8-8-8-8-8-6-6-6-6-6-6-6-6-6------------------------------| 
E|-6-6-6-6-6-6-6-6-6-6-6-6-4-4-4-4-4-4-4-4-4------------------------------| 
Im paranoid about the people I meet 
 
e|----------------------------------------------------| 
B|----------------------------------------------------| 
G|-x-x-x-x-x-x-x-x-x-x-x-x-x-x-----------------------------------------| 
D|-5-5-5-5-5-5-5-5-5-5-5-3-3-3--------------------------------------------| 
A|-5-5-5-5-5-5-5-5-5-5-5-3-3-3--------------------------------------------| 
E|-3-3-3-3-3-3-3-3-3-3-3-1-1-1---------------------------------------------| 
Why are they talking to me 
 
e|----------------------------------------------------| 
B|----------------------------------------------------| 
G|-x-x-x-x-x-x-x-x-x----------------------------------------| 
D|-3-3-3-3-3-3-5-5-5---------------------------------------| 
A|-3-3-3-3-3-3-5-5-5-------------------------------------| 
E|-1-1-1-1-1-1-3-3-3-------------------------------------| 
And why can't anyone see 
 
CORO: 
e|----------------------------------------------------| 
B|----------------------------------------------------| 
G|-------------x-x-x-x-x-x-x-x-x-x-x-x-------------------------| 
D|-------------8-8-8-6-6-6-6-5-5-5-5-5------------------------------| 
A|-------------8-8-8-6-6-6-6-5-5-5-5-5-------------------------| 
E|-------------6-6-6-4-4-4-4-3-3-3-3-3---------------------| 
I just wanna live 
Don't really care about the things that they say 
Don't really care about what happens to me 
I just wanna live 
(Just wanna live, Just wanna live, Just wanna live, Just wanna live, 
Just wanna live, Just wanna live) 
 
VERSO: 
e|----------------------------------------------------| 
B|----------------------------------------------------| 
G|------x-x-x-x-x----x-x-x-x-x---------------------------------| 
D|------8-8-8-8-8----6-6-6-6-6---------------------------| 
A|------8-8-8-8-8----6-6-6-6-6---------------------------------| 
E|------6-6-6-6-6----4-4-4-4-4---------------------------------| 
I rock a law suit when i'm goin to court, 
 
e|----------------------------------------------------| 
B|----------------------------------------------------| 
G|---x-x-x-x-x------------------------------------------------| 
D|---5-5-5-5-5----------------------------------------------------| 
A|---5-5-5-5-5---------------------------------------------------| 
E|---3-3-3-3-3-----------------------------------------------------| 
a white suit when i'm gettin divorced,a black suit 
 
e|----------------------------------------------------| 
B|----------------------------------------------------| 
G|-----------------x-x-x-x-x-----------------------------------------| 
D|-----------------3-3-3-3-3------------------------------------------| 
A|-----------------3-3-3-3-3------------------------------------------| 
E|-----------------1-1-1-1-1------------------------------------------| 
at the funeral home,and my birthday suit when i'm home alone 
 
--->(SE REPITE LO ANTERIOR)<---- 
talkin' on the phone,got an interview with the rolling stone 
they're saying now your rich and now your famous 
fake ass girls all know your name and 
 
PRE-CORO: 
e|----------------------------------------------------| 
B|----------------------------------------------------| 
G|-x-x-x-x-x-x-x-x-x-x-x-x-x-x-x---------------------------| 
D|-8-8-8-8-8-8-8-8-8-8-8-8-6-6-6----------------------| 
A|-8-8-8-8-8-8-8-8-8-8-8-8-6-6-6------------------------------| 
E|-6-6-6-6-6-6-6-6-6-6-6-6-4-4-4-----------------------------| 
lifestyles of the rich and famous 
 
e|----------------------------------------------------| 
B|----------------------------------------------------| 
G|-x-x-x-x-x-x-x-x-x-x-x-x-x-x-x-x-x-x-x-x-x-x-x-x-x-x-x----------------------------| 
D|-6-6-6-6-6-6-6-6-6-6-6-6-6-5-5-5-5-5-5-5-5-5-5-3-3-3-3-3------------------------------------------| 
A|-6-6-6-6-6-6-6-6-6-6-6-6-6-5-5-5-5-5-5-5-5-5-5-3-3-3-3-3-----------------------------------------| 
E|-4-4-4-4-4-4-4-4-4-4-4-4-4-3-3-3-3-3-3-3-3-3-3-1-1-1-1-1--------------------------------------------| 
your first hit aren't you ashmed of the life of the life of the 
 
e|----------------------------------------------------| 
B|----------------------------------------------------| 
G|-x-x-x---------------------------------------| 
D|-3-3-3----------------------------------------| 
A|-3-3-3------------------------------------| 
E|-1-1-1--------------------------------------| 
          life were living? 
 
CORO: 
e|----------------------------------------------------| 
B|----------------------------------------------------| 
G|-------------x-x-x-x-x-x-x-x-x-x-x-x-------------------------| 
D|-------------8-8-8-6-6-6-6-5-5-5-5-5------------------------------| 
A|-------------8-8-8-6-6-6-6-5-5-5-5-5-------------------------| 
E|-------------6-6-6-4-4-4-4-3-3-3-3-3---------------------| 
I just wanna live 
Don't really care about the things that they say 
Don't really care about what happens to me 
I just wanna live, just wanna live 
 
BRIDGE: 
e|-x--------------------------------------x-----------------------------| 
B|-x--------------------------------------x-------------------------| 
G|-x--------------------------------------x-------------------------| 
D|-4--------------------------------------4------------------------------| 
A|-4--------------------------------------4--------------------------------| 
E|-2--------------------------------------2----------------------------------| 
      Stop your messin around boy, Better think of your future 
 
e|-x------------------------------------------x-----------------------------| 
B|-x------------------------------------------x-------------------------| 
G|-x------------------------------------------x-------------------------| 
D|-4------------------------------------------4------------------------------| 
A|-4------------------------------------------4--------------------------------| 
E|-2------------------------------------------2----------------------------------| 
     Better make some good plans boy, said everyone of my teachers 
 
e|-x-x-x-x-x-x-x-x-x-x-x-x-x-x-x---| 
B|-x-x-x-x-x-x-x-x-x-x-x-x-x-x-x-| 
G|-x-x-x-x-x-x-x-x-x-x-x-x-x-x-x----| 
D|-4-x-x-x-x-x-x-x-x-x-x-x-x-x-x---------| 
A|-4-x-x-x-x-x-x-x-x-x-x-x-x-x-x--| 
E|-2-x-x-x-x-x-x-x-x-x-x-x-x-x-x------| 
Look out you better play it safe 
 
e|-x-x-x-x-x-x-x-x-x-x-x-x-x-x-x-x-x-x-x-x-x-x-x-x-x-x-x-x-x-x-x-x--| 
B|-x-x-x-x-x-x-x-x-x-x-x-x-x-x-x-x-x-x-x-x-x-x-x-x-x-x-x-x-x-x-x-x-| 
G|-x-x-x-x-x-x-x-x-x-x-x-x-x-x-x-x-x-x-x-x-x-x-x-x-x-x-x-x-x-x-x-x--| 
D|-4-x-x-x-x-x-x-x-x-x-x-x-x-x-x-x-x-x-x-x-x-x-x-x-4-x-x-x-x-x-x-x---------| 
A|-4-x-x-x-x-x-x-x-x-x-x-x-x-x-x-x-x-x-x-x-x-x-x-x-4-x-x-x-x-x-x-x--| 
E|-2-x-x-x-x-x-x-x-x-x-x-x-x-x-x-x-x-x-x-x-x-x-x-x-2-x-x-x-x-x-x-x------| 
you never know whats somethings coming our way we say 
 
e|-x-x-x-x-x-x-x-x-x-x-x-x-x-x---| 
B|-x-x-x-x-x-x-x-x-x-x-x-x-x-x-| 
G|-x-x-x-x-x-x-x-x-x-x-x-x-x-x----| 
D|-x-x-x-x-x-x-x-x-x-x-x-x-x-x---------| 
A|-x-x-x-x-x-x-x-x-x-x-x-x-x-x--| 
E|-x-x-x-x-x-x-x-x-x-x-x-x-x-x------| 
Where we coming from 
 
e|-x-x-x-x-x-x-x-x-x-x-x-x-x-x-x-x-x-x-x---| 
B|-x-x-x-x-x-x-x-x-x-x-x-x-x-x-x-x-x-x-x-| 
G|-x-x-x-x-x-x-x-x-x-x-x-x-x-x-x-x-x-x-x----| 
D|-x-x-x-x-x-x-x-x-x-x-x-x-x-x-x-x-x-x-x---------| 
A|-x-x-x-x-x-x-x-x-x-x-x-x-x-x-x-x-x-x-x--| 
E|-x-x-x-x-x-x-x-x-x-x-x-x-x-x-x-x-x-x-x------| 
We've already seen the worst of this life 
 
PRE-CORO: 
e|----------------------------------------------------| 
B|----------------------------------------------------| 
G|-x-x-x-x-x-x-x-x-x-x-x-x-x-x-x---------------------------| 
D|-8-8-8-8-8-8-8-8-8-8-8-8-6-6-6----------------------| 
A|-8-8-8-8-8-8-8-8-8-8-8-8-6-6-6------------------------------| 
E|-6-6-6-6-6-6-6-6-6-6-6-6-4-4-4-----------------------------| 
Now we expect it everywhere that we go 
 
e|----------------------------------------------------| 
B|----------------------------------------------------| 
G|-x-x-x-x-x-x-x-x-x-x-x-x-x-x-x-x-x-x-x-x-x-x-----------------------| 
D|-6-6-6-6-6-6-6-5-5-5-5-5-5-5-5-5-5-3-3-3-3-3------------------------------------------| 
A|-6-6-6-6-6-6-6-5-5-5-5-5-5-5-5-5-5-3-3-3-3-3-----------------------------------------| 
E|-4-4-4-4-4-4-4-3-3-3-3-3-3-3-3-3-3-1-1-1-1-1--------------------------------------------| 
All the things that they say yeah we already know 
 
CORO: 
e|----------------------------------------------------| 
B|----------------------------------------------------| 
G|-------------x-x-x-x-x-x-x-x-x-x-x-x-------------------------| 
D|-------------8-8-8-6-6-6-6-5-5-5-5-5------------------------------| 
A|-------------8-8-8-6-6-6-6-5-5-5-5-5-------------------------| 
E|-------------6-6-6-4-4-4-4-3-3-3-3-3---------------------| 
I just wanna live 
Don't really care about the things that they say 
Don't really care about what others will think (just wanna live 
just wanna live just wanna live) 
I just wanna live. 
( just wanna live just wanna live just wanna live) 
I just wanna live. 
( just wanna live just wanna live just wanna live) 
Don't really care about the things that they say 
Don't really care about what others will think 
I just wanna live. 
 
 
---> That was the song... I hope you will enjoy it...<--- 
PD:  any question and comentary you can write me ([email protected])... and sorry for my English....  
just I'm a latin Kid...   Bye... and Thanks.... 
 

	  

Search Paypal
auto scroll beats size up size down change color hide chords drawings
tab show chords e-chords YouTube Clip e-chords hide all tabs e-chords go to top tab