Good Charlotte

home > Good Charlotte

I Heard You Tab

Good Charlotte

Difficulty: nolevelnolevel

tuner correct add songbook print version text version save to e-mail
chordsukulelecavacokeyboardtabbassdrumsharmonicsflute Guitar Pro
chords

I Heard You

  		Intro/Verse Intro:                     Play x2
e|--------------------------------------------------------------|
B|--------------------------------------------------------------|
G|---5--5-555-5-5--------------9--9-999-9-9-10--10-101010-10-10-|
D|---5--5-555-5-5-5--5-555-5-5-9--9-999-9-9-10--10-101010-10-10-|
A|---3--3-333-3-3-5--5-555-5-5-7--7-777-7-7- 8-- 8- 8 8 8- 8- 8-|
E|----------------3--3-333-3-3----------------------------------|
  
Yeah, for all the popular kids. Yeah, Listen up. Come on... 
		GET UP, GET UP, GET UP!

Verse:
Today I screwed up again, 

you said I can tell in the way, 

you said goodbye.

I saw you sitting at your T-shirt stand 

with your new boyfriend

Hes really cool, I get the POINT!

Chorus:      Play x4
e|---------------------------------------------|
B|---------------------------------------------|
G|---5-5-55-5----------------------------------|
D|---5-5-55-5-5-5-55-5-9-9-99-9-10-10-1010-10--|
A|---3-3-33-3-5-5-55-5-9-9-99-9-10-10-1010-10--|
E|------------3-3-33-3-7-7-77-7- 8- 8- 8 8- 8--|

I  don't want you, I I I don't....
                                    Notta chance what don't you see!
I heard you, I heard you, I heard you say... 
I  don't want you, I I I don't....
                                    Your not good enough for me!
I heard you, I heard you, I heard you say... 

                        Play x2
e|--------------------------------------------------------------|
B|--------------------------------------------------------------|
G|---5--5-555-5-5--------------9--9-999-9-9-10--10-101010-10-10-|
D|---5--5-555-5-5-5--5-555-5-5-9--9-999-9-9-10--10-101010-10-10-|
A|---3--3-333-3-3-5--5-555-5-5-7--7-777-7-7- 8-- 8- 8 8 8- 8- 8-|
E|----------------3--3-333-3-3----------------------------------|

                     What....  Do yo thang.....
Verse 2:

Today I screwed up again,

I wasn't paying attention 

walked into the wall again 

i heard you laugh and saw you grin 

While you were stting at your T-Shirt stand 

with all your cool friends, 

They're really cool I GET THE POOOINT!!!

Chorus:      Play x4
e|---------------------------------------------|
B|---------------------------------------------|
G|---5-5-55-5----------------------------------|
D|---5-5-55-5-5-5-55-5-9-9-99-9-10-10-1010-10--|
A|---3-3-33-3-5-5-55-5-9-9-99-9-10-10-1010-10--|
E|------------3-3-33-3-7-7-77-7- 8- 8- 8 8- 8--|

I  don't want you, I I I don't....
                                    Notta chance what don't you see!
I heard you, I heard you, I heard you say... 
I  don't want you, I I I don't....
                                    Your not good enough for me!
I heard you, I heard you, I heard you say... 

Bridge:
e|------------------------------------------------------------|
B|------------------------------------------------------------|
G|-5~~~~~~~~~~~~~~~~~~~~~~~~~~~~~~~~--------------------------|
D|-5~~~~~~~~~~~~~~~~~~~~~~~~~~~~~~~5~~~~~~~~~~~~~~~~~~~~~~~~~~|
A|-3~~~~~~~~~~~~~~~~~~~~~~~~~~~~~~~5~~~~~~~~~~~~~~~~~~~~~~~~~~|
E|---------------------------------3~~~~~~~~~~~~~~~~~~~~~~~~~~|

     Today i'll give it one last try, and then I know I'll wonder why,

e|----------------------------------------------------|
B|----------------------------------------------------|
G|----------------------------------------------------|
D|-9~~~~~~~~~~~~~~~~~~~~~~~10~~~~~~~~~~~~~~~~~~~~~~~~~|
A|-9~~~~~~~~~~~~~~~~~~~~~~~10~~~~~~~~~~~~~~~~~~~~~~~~~|
E|-7~~~~~~~~~~~~~~~~~~~~~~~ 8~~~~~~~~~~~~~~~~~~~~~~~~~|

     I did it to myself once again.....

e|------------------------------------------------------------|
B|------------------------------------------------------------|
G|-5~~~~~~~~~~~~~~~~~~~~~~~~~~~~~~~~--------------------------|
D|-5~~~~~~~~~~~~~~~~~~~~~~~~~~~~~~~5~~~~~~~~~~~~~~~~~~~~~~~~~~|
A|-3~~~~~~~~~~~~~~~~~~~~~~~~~~~~~~~5~~~~~~~~~~~~~~~~~~~~~~~~~~|
E|---------------------------------3~~~~~~~~~~~~~~~~~~~~~~~~~~|

     IIII saw your boyfriend hes 6'3, Quarterback on varsity.....


e|----------------------------------------------------|
B|----------------------------------------------------|
G|----------------------------------------------------|
D|-9~~~~~~~~~~~~~~~~~~~~~~~10~~~~~~~~~~~~~~~~~~~~~~~~~|
A|-9~~~~~~~~~~~~~~~~~~~~~~~10~~~~~~~~~~~~~~~~~~~~~~~~~|
E|-7~~~~~~~~~~~~~~~~~~~~~~~ 8~~~~~~~~~~~~~~~~~~~~~~~~~|

     The football players love to torture me......    

e|------------------------------------------------------------|
B|--P.M.------------------------------------------------------|
G|-5xxxxxxxxxxxxxxxxxxxxxxxxxxxxxxx-P.M.----------------------|
D|-5xxxxxxxxxxxxxxxxxxxxxxxxxxxxxxx5xxxxxxxxxxxxxxxxxxxxxxxxxx|
A|-3xxxxxxxxxxxxxxxxxxxxxxxxxxxxxxx5xxxxxxxxxxxxxxxxxxxxxxxxxx|
E|---------------------------------3xxxxxxxxxxxxxxxxxxxxxxxxxx|

     So I'm feelin like I'm not fitting in, I know I'm not fitting in with

e|-----------------------------------------------------|
B|-----------------------------------------------------|
G|--P.M.-----------------------------------------------|
D|-9xxxxxxxxxxxxxxxxxxxxxxx1010101010101010101010101010|
A|-9xxxxxxxxxxxxxxxxxxxxxxx1010101010101010101010101010|
E|-7xxxxxxxxxxxxxxxxxxxxxxx 8 8 8 8 8 8 8 8 8 8 8 8 8 8|

     you and your stuck up friends I get the POOOINT!!!

Chorus:            Play x4
e|---------------------------------------------|
B|---------------------------------------------|
G|---5-5-55-5----------------------------------|
D|---5-5-55-5-5-5-55-5-9-9-99-9-10-10-1010-10--|
A|---3-3-33-3-5-5-55-5-9-9-99-9-10-10-1010-10--|
E|------------3-3-33-3-7-7-77-7- 8- 8- 8 8- 8--|

I  don't want you, I I I don't....
                                    Notta chance what don't you see!
I heard you, I heard you, I heard you say... 
I  don't want you, I I I don't....
                                    Your not good enough for me!
I heard you, I heard you, I heard you say... 

Outro:                    Play x2
e|--------------------------------------------------------------|
B|--------------------------------------------------------------|
G|---5--5-555-5-5--------------9--9-999-9-9-10--10-101010-10-10-|
D|---5--5-555-5-5-5--5-555-5-5-9--9-999-9-9-10--10-101010-10-10-|
A|---3--3-333-3-3-5--5-555-5-5-7--7-777-7-7- 8-- 8- 8 8 8- 8- 8-|
E|----------------3--3-333-3-3----------------------------------|

     I heard you          I heard you    
                 Yeah!                  Your not good enough for me      
     I heard you            I heard you
                 Come on!               I get the point.
	  

Search Paypal
auto scroll beats size up size down change color hide chords drawings
tab show chords e-chords YouTube Clip e-chords hide all tabs e-chords go to top tab