Good Charlotte

home > Good Charlotte

Dance Floor Anthem Tab

Good Charlotte

Difficulty: nolevelnolevel

by gustsilva

tuner correct add songbook print version text version save to e-mail
chordsukulelecavacokeyboardtabbassdrumsharmonicsflute Guitar Pro
chords

Dance Floor Anthem

  		~ = vibrato 
\ = Slide Down 
/ = slide Up 
^ = Bend String 
x = Mute String  
* = Harmonic 
> = Let Ring 
. = Palm Mute 

INTRO 

Guitar 1 
 
E|-----------|     |---------------------| 
B|-----------|     |-****-****-----------| 
G|-6-6-6-----| 3X  |-9999-7777-****-****-| 
D|-6-6-6-----|     |-----------9999-7777-| 
A|-8-8-8-----|     |---------------------| 
E|-----------|     |---------------------| 
 
 Keyboard Notes                                         
 
E|------------------|------------------| 
B|------------------|------------------| 
G|-16---20-18-16-15-|-16---20-18-16-18-| 
D|-x----x--x--x--x--|-x----x--x--x--x--| 
A|-14---18-16-14-13-|-14---18-16-14-16-| 
E|------------------|------------------| 
 

Guitar 2 (comes in after harmonics) 
E|-----------------|      |-----------------|      |-----------------| 
B|-----------------|  x2  |-----------------|  x2  |-----------------|  x2 
G|-4-4-4-4-4-4-4-4-|      |-8-8-8-8-8-8-8-8-|      |-4-4-4-4-4-4-4-4-| 
D|-4-4-4-4-4-4-4-4-|      |-8-8-8-8-8-8-8-8-|      |-4-4-4-4-4-4-4-4-| 
A-2-2-2-2-2-2-2-2-|      |-6-6-6-6-6-6-6-6-|      |-2-2-2-2-2-2-2-2-| 
E|-----------------|      |-----------------|      |-----------------|  

E|-----------------| 
B|-----------------| 
G|-6-6-6-6-6-6-6-6-| 
D|-6-6-6-6-6-6-6-6-| 
A-4-4-4-4-4-4-4-4-| 
E|-----------------|  

verse 1 
            . . . . . . . .   . . . . . . . .   . . . . . . . . 
 
E|---------|-----------------|-----------------|-----------------| 
B|---------|-----------------|-----------------|-----------------| 
G|-8>------|-----------------|-----------------|-----------------| 
D|---------|-----------------|-----------------|-----------------| 
A|---------|-6-6-6-6-6-6-6-6-|-6-6-6-6-6-6-6-6-|-4-4-4-4-4-4-4-4-| 
E|---------|-----------------|-----------------|-----------------| 
 
            . . . . . . . .   . . . . . . . .   . . . . . . . . 
  . . . . . . . .   . . . . . . . .   . . . . . . . . 
 
E|-----------------|-----------------|-----------------| 
B|-----------------|-----------------|-----------------| 
G|-----------------|-----------------|-----------------| 
D|-----------------|-----------------|-----------------| 
A-4-4-4-4-4-4-4-4-|-9-9-9-9-9-9-9-9-|-9-9-9-9-9-9-9-9-| 
E|-----------------|-----------------|-----------------| 
 
  . . . . . . . .   . . . . . . . .   . . . . . . . . 
  . . . . .    
 
E|-------------------| 
B|-------------------| 
G|-------------------| 
D|-------------------| 
A|-----------99-11\--| 
e|-7-7-7-7-7-77-9-\--| 
 
  . . . . .  

Chorus 

Guitar 1 Keyboard Notes 
 
E|------------------|-------------| 
B|------------------|-------------|   x2 
G|-16---20-18-16-15-|-16----18----| 
D|-x----x--x--x--x--|-x-----x-----| 
A|-14---18-16-14-13-|-14----16----| 
E|------------------|-------------| 
 

Guitar 2  
E|-----------------|      |-----------------|        x3  
B|-----------------|  x2  |-----------------|  x2   
G|-4-4-4-4-4-4-4-4-|      |-8-8-8-8-8-8-8-8-|       
D|-4-4-4-4-4-4-4-4-|      |-8-8-8-8-8-8-8-8-|       
A-2-2-2-2-2-2-2-2-|      |-6-6-6-6-6-6-6-6-|       
E|-----------------|      |-----------------|       

 
E|-----------------| 
B|-----------------|  x2 
G|-6-6-6-6-6-6-6-6-| 
D|-6-6-6-6-6-6-6-6-| 
A-4-4-4-4-4-4-4-4-| 
E|-----------------| 
 

POST Chorus 1 

 
E|-----------| 
B|-----------| 
G|-8-8-8\----| 
D|-8-8-8\----| 
A|-6-6-6\----| 
E|-----------| 
 

verse 2 

Guitar 1 
  . . . . . . . .   . . . . . . . .   . . . . . . . . 
 
E|-----------------|-----------------|-----------------| 
B|-----------------|-----------------|-----------------| 
G|-----------------|-----------------|-----------------| 
D|-----------------|-----------------|-----------------| 
A-6-6-6-6-6-6-6-6-|-6-6-6-6-6-6-6-6-|-4-4-4-4-4-4-4-4-| 
E|-----------------|-----------------|-----------------| 
 
  . . . . . . . .   . . . . . . . .   . . . . . . . . 
  . . . . . . . .   . . . . . . . .   . . . . . . . . 
 
E|-----------------|-----------------|-----------------| 
B|-----------------|-----------------|-----------------| 
G|-----------------|-----------------|-----------------| 
D|-----------------|-----------------|-----------------| 
A-4-4-4-4-4-4-4-4-|-9-9-9-9-9-9-9-9-|-9-9-9-9-9-9-9-9-| 
E|-----------------|-----------------|-----------------| 
 
  . . . . . . . .   . . . . . . . .   . . . . . . . . 
  . . . . . . . .   . . . . . . . .   . . . . . . . . 
 
E|-----------------|-----------------|-----------------| 
B|-----------------|-----------------|-----------------| 
G|-----------------|-----------------|-----------------| 
D|-----------------|-----------------|-----------------| 
A|-----------------|-----------------|-6-6-6-6-6-6-6-6-| 
E|-7-7-7-7-7-7-7-7-|-7-7-7-7-7-7-7-7-|-----------------| 
 
  . . . . . . . .   . . . . . . . .   . . . . . . . . 
  . . . . . . . .   . . . . . . . .   . . . . . . . . 
 
E|-----------------|-----------------|-----------------| 
B|-----------------|-----------------|-----------------| 
G|-----------------|-----------------|-----------------| 
D|-----------------|-----------------|-----------------| 
A-6-6-6-6-6-6-6-6-|-4-4-4-4-4-4-4-4-|-4-4-4-4-4-4-4-4-| 
E|-----------------|-----------------|-----------------| 
 
  . . . . . . . .   . . . . . . . .   . . . . . . . . 
  . . . . . . . .   . . . . . . . .   . . . . . 
 
E|-----------------|-----------------|-------------------| 
B|-----------------|-----------------|-------------------| 
G|-----------------|-----------------|-------------------| 
D|-----------------|-----------------|-------------------| 
A|-9-9-9-9-9-9-9-9-|-9-9-9-9-9-9-9-9-|-----------99-11\--| 
E|-----------------|-----------------|-7-7-7-7-7-77-9-\--| 
 
  . . . . . . . .   . . . . . . . .   . . . . . 

Guitar 2  (comes in halfway through Verse) 
 
E|----------------|---------------|---------------------|----------| 
B|----------------|---------------|---------------------|----------| 
G|----------------|---------------|---------------------|----------| 
D|-8-8---8---888--|-6-6---6---666-|-11-11---11---111111-|----------| 
A|-6-6---6---666--|-4-4---4---444-|-9--9----9----9-9-9--|-9-9------| 
E|----------------|---------------|---------------------|-7-7------| 
 
  
<> 

POST Chorus 2 

Guitar 1 
 
E|---------------------------| 
B|---------------------------|    x4 
G|-------------------13------| 
D|-/11-11-1111-11-11----11~\-| 
A|-/9--9--9-9--9--9----------| 
E|---------------------------| 
 

Guitar 2 
  ........ 
 
E|----------| 
B|----------|  * Heard throughout Post Chorus 
G|-66666666-| 
D|----------| 
A|----------| 
E|----------| 
 
  ........ 

BRIDGE 

Guitar 1 
  . . . . . . . .   . . . . . . . . 
E|-----------------|-----------------| 
B|-----------------|-----------------|   x3  
G|-6-6-6-6-6-6-6---|-----------------| 
D|---------------6-|-6-6-6-8-8-8-8-8-| 
A|-----------------|-----------------| 
E|-----------------|-----------------| 
  . . . . . . . .   . . . . . . . . 
  . . . . . . .  
E|-----------------|-----------------| 
B|-----------------|-----------------|     
G|-6-6-6-6-6-6-6---|-----------------| 
D|---------------6-|-6-6-6-6-6-6-6-6-| 
A|---------------4-|-4-4-4-4-4-4-4-4-| 
E|-----------------|-----------------| 
  . . . . . . .  

 
E|----------------|---------------|----------------------| 
B|----------------|---------------|----------------------| 
G|----------------|---------------|----------------------| 
D|-8-8---88--888--|-6-6---66--666-|-11-11---1111--111111-| 
A|-6-6---66--666--|-4-4---44--444-|-9--9----9-9---9-9-9--| 
E|----------------|---------------|----------------------| 
 

 
E|--------------| 
B|--------------| 
G|--------------| 
D|--------------| 
A-9-9--999-11\-| 
e|-7-7--777-9-\-| 
 

<> 

End On 
E|------------| 
B|------------| 
G|------------| 
D|-11\--------| 
A|-9-\--------| 
E|------------| 
	  

Search Paypal
auto scroll beats size up size down change color hide chords drawings
tab show chords e-chords YouTube Clip e-chords hide all tabs e-chords go to top tab