Good Charlotte

home > Good Charlotte

Christmas by The Phone Tab

Good Charlotte

Difficulty: nolevelnolevel

by gustsilva

tuner correct add songbook print version text version save to e-mail
chordsukulelecavacokeyboardtabbassdrumsharmonicsflute Guitar Pro
chords

Christmas by The Phone

  		 

 
e|----------------------------------| 
B|----4---4---4---4---4---4---4-----| 
G|---4------------------------------| 
D|--4----4---4---4---4---4---4---4-4| 
A|-2----2---2---2---2---2---2---2-2-| 
E|----------------------------------| 
 

 
 
e|-----------------------------------| 
B|----4---4---4----------4---4-4-4-4-| 
G|---4------------------4------------| 
D|--4----4---4---4-4---4----4--------| 
A|-2----2---2---2-2---2----2---------| 
E|-----------------------------------| 
 

 
	  

Search Paypal
auto scroll beats size up size down change color hide chords drawings
tab show chords e-chords YouTube Clip e-chords hide all tabs e-chords go to top tab