Good Charlotte

home > Good Charlotte

Boys and Girls Tab

Good Charlotte

Difficulty: nolevelnolevel

by Misis

tuner correct add songbook print version text version save to e-mail
chordsukulelecavacokeyboardtabbassdrumsharmonicsflute Guitar Pro
chords

Boys and Girls

  		D#||-------------------0-----||-------------------0----| 
A#||-------------------0-----||-------------------0----| 
F#||--------6-------8-------*||--------6-------8-------| 
C#||------------------------*||------------------------| 
G#||-----7-------------------||-----7------------------| 
D#||--5--------7-------------||--5--------7------------| 
 
 
 
-------------------0----|-------------------0----|-------------------0----| 
-------------------0----|-------------------0----|-------------------0----| 
--------6-------8-------|--------6-------8-------|--------6-------8-------| 
------------------------|------------------------|------------------------| 
-----7------------------|-----7------------------|-----7------------------| 
--5--------7------------|--5--------7------------|--5--------7------------| 
 
 
 
-------------------0----|--------------------------|--------------------------| 
-------------------0----|--------------------------|--------------------------| 
--------6-------8-------|--------------------------|--------------------------| 
------------------------|--7--7--7--9--9--9--9--9--|--7--7--7--9--9--9--9--9--| 
-----7------------------|--7--7--7--9--9--9--9--9--|--7--7--7--9--9--9--9--9--| 
--5--------7------------|--5--5--5--7--7--7--7--7--|--5--5--5--7--7--7--7--7--| 
 
 
 
--------------------------|--------------------------| 
--------------------------|--------------------------| 
--------------------------|--------------------------| 
--7--7--7--9--9--9--9--9--|--7--7--7--9--9--9--9--9--| 
--7--7--7--9--9--9--9--9--|--7--7--7--9--9--9--9--9--| 
--5--5--5--7--7--7--7--7--|--5--5--5--7--7--7--7--7--| 
 
 
 
--------------------------|--------------------------| 
--------------------------|--------------------------| 
--------------------------|--------------------------| 
--7--7--7--7--7--7--7--7--|--7--7--7--7--7--7--7--7--| 
--7--7--7--7--7--7--7--7--|--7--7--7--7--7--7--7--7--| 
--5--5--5--5--5--5--5--5--|--5--5--5--5--5--5--5--5--| 
 
 
 
--------------------------|--------------------------| 
--------------------------|--------------------------| 
--9--9--9--9--9--9--9--9--|--8--8--8--8--8--8--8--8--| 
--9--9--9--9--9--9--9--9--|--9--9--9--9--9--9--9--9--| 
--7--7--7--7--7--7--7--7--|--6--6--6--6--6--6--6--6--| 
--------------------------|--------------------------| 
 
 
 
--------------------------|--------------------------| 
--------------------------|--------------------------| 
--------------------------|--------------------------| 
--7--7--7--7--7--7--7--7--|--7--7--7--7--7--7--7--7--| 
--7--7--7--7--7--7--7--7--|--7--7--7--7--7--7--7--7--| 
--5--5--5--5--5--5--5--5--|--5--5--5--5--5--5--5--5--| 
 
 
 
--------------------------|--------------------------| 
--------------------------|--------------------------| 
--9--9--9--9--9--9--9--9--|--8--8--8--8--8--8--8--8--| 
--9--9--9--9--9--9--9--9--|--9--9--9--9--9--9--9--9--| 
--7--7--7--7--7--7--7--7--|--6--6--6--6--6--6--6--6--| 
--------------------------|--------------------------| 
 
 
 
--------------------------|--------------------------|------------------| 
--------------------------|--------------------------|------------------| 
--------------------------|--------------------------|------------------| 
--7--7--7--7--7--7--7--7--|--7--7--7--7--7--7--7--7--|------------------| 
--7--7--7--7--7--7--7--7--|--7--7--7--7--7--7--7--7--|------------------| 
--5--5--5--5--5--5--5--5--|--5--5--5--5--5--5--5--5--|------------------| 
 
 
 
-------------------0----|-------------------0----|-------------------0----| 
-------------------0----|-------------------0----|-------------------0----| 
--------6-------8-------|--------6-------8-------|--------6-------8-------| 
------------------------|------------------------|------------------------| 
-----7------------------|-----7------------------|-----7------------------| 
--5--------7------------|--5--------7------------|--5--------7------------| 
 
 
 
---------------------|-------------------0----|-------------------0----| 
---------------------|-------------------0----|-------------------0----| 
--------6------------|--------6-------8-------|--------6-------8-------| 
---------------------|------------------------|------------------------| 
-----7---------------|-----7------------------|-----7------------------| 
--5------------------|--5--------7------------|--5--------7------------| 
 
 
 
-------------------0----|-------------------0----|--------------------------| 
-------------------0----|-------------------0----|--------------------------| 
--------6-------8-------|--------6-------8-------|--------------------------| 
------------------------|------------------------|--7--7--7--9--9--9--9--9--| 
-----7------------------|-----7------------------|--7--7--7--9--9--9--9--9--| 
--5--------7------------|--5--------7------------|--5--5--5--7--7--7--7--7--| 
 
 
 
--------------------------|--------------------------| 
--------------------------|--------------------------| 
--------------------------|--------------------------| 
--7--7--7--9--9--9--9--9--|--7--7--7--9--9--9--9--9--| 
--7--7--7--9--9--9--9--9--|--7--7--7--9--9--9--9--9--| 
--5--5--5--7--7--7--7--7--|--5--5--5--7--7--7--7--7--| 
 
 
 
--------------------------|--------------------------| 
--------------------------|--------------------------| 
--------------------------|--------------------------| 
--7--7--7--9--9--9--9--9--|--7--7--7--7--7--7--7--7--| 
--7--7--7--9--9--9--9--9--|--7--7--7--7--7--7--7--7--| 
--5--5--5--7--7--7--7--7--|--5--5--5--5--5--5--5--5--| 
 
 
 
--------------------------|--------------------------| 
--------------------------|--------------------------| 
--------------------------|--9--9--9--9--9--9--9--9--| 
--7--7--7--7--7--7--7--7--|--9--9--9--9--9--9--9--9--| 
--7--7--7--7--7--7--7--7--|--7--7--7--7--7--7--7--7--| 
--5--5--5--5--5--5--5--5--|--------------------------| 
 
 
 
--------------------------|--------------------------| 
--------------------------|--------------------------| 
--8--8--8--8--8--8--8--8--|--------------------------| 
--9--9--9--9--9--9--9--9--|--7--7--7--7--7--7--7--7--| 
--6--6--6--6--6--6--6--6--|--7--7--7--7--7--7--7--7--| 
--------------------------|--5--5--5--5--5--5--5--5--| 
 
 
 
--------------------------|--------------------------| 
--------------------------|--------------------------| 
--------------------------|--9--9--9--9--9--9--9--9--| 
--7--7--7--7--7--7--7--7--|--9--9--9--9--9--9--9--9--| 
--7--7--7--7--7--7--7--7--|--7--7--7--7--7--7--7--7--| 
--5--5--5--5--5--5--5--5--|--------------------------| 
 
 
 
--------------------------|--------------------------| 
--------------------------|--------------------------| 
--8--8--8--8--8--8--8--8--|--------------------------| 
--9--9--9--9--9--9--9--9--|--7--7--7--7--7--7--7--7--| 
--6--6--6--6--6--6--6--6--|--7--7--7--7--7--7--7--7--| 
--------------------------|--5--5--5--5--5--5--5--5--| 
 
 
 
--------------------------|--------------------------| 
--------------------------|--------------------------| 
--------------------------|--9--9--9--9--9--9--9--9--| 
--7--7--7--7--7--7--7--7--|--9--9--9--9--9--9--9--9--| 
--7--7--7--7--7--7--7--7--|--7--7--7--7--7--7--7--7--| 
--5--5--5--5--5--5--5--5--|--------------------------| 
 
 
 
--------------------------|--------------------------| 
--------------------------|--------------------------| 
--8--8--8--8--8--8--8--8--|--------------------------| 
--9--9--9--9--9--9--9--9--|--7--7--7--7--7--7--7--7--| 
--6--6--6--6--6--6--6--6--|--7--7--7--7--7--7--7--7--| 
--------------------------|--5--5--5--5--5--5--5--5--| 
 
 
 
--------------------------|--------------------------| 
--------------------------|--------------------------| 
--------------------------|--9--9--9--9--9--9--9--9--| 
--7--7--7--7--7--7--7--7--|--9--9--9--9--9--9--9--9--| 
--7--7--7--7--7--7--7--7--|--7--7--7--7--7--7--7--7--| 
--5--5--5--5--5--5--5--5--|--------------------------| 
 
 
 
--------------------------|--------------------------|------------------------| 
--------------------------|--------------------------|------------------------| 
--8--8--8--8--8--8--8--8--|--------------------------|------------------------| 
--9--9--9--9--9--9--9--9--|--7--7--7--7--7--7--7--7--|--7--7--7--7--7--7------| 
--6--6--6--6--6--6--6--6--|--7--7--7--7--7--7--7--7--|--7--7--7--7--7--7------| 
--------------------------|--5--5--5--5--5--5--5--5--|--5--5--5--5--5--5------| 
 
 
 
-------------------------|-------------------------|-------------------------| 
-------------------------|-------------------------|-------------------------| 
--11/-13----9----9--9----|--13/-11----9----9--9----|--11/-13----9----9--9----| 
--x---x-----x----x--x----|--x---x-----x----x--x----|--x---x-----x----x--x----| 
--9/--11----7----7--7----|--11/-9-----7----7--7----|--9/--11----7----7--7----| 
-------------------------|-------------------------|-------------------------| 
 
 
 
-----------------------|-------------------------|-----------------------| 
-----------------------|-------------------------|-----------------------| 
--13/-11----9----------|--11/-13----9----9--9----|--13/-11----9----------| 
--x---x-----x----------|--x---x-----x----x--x----|--x---x-----x----------| 
--11/-9-----7----------|--9/--11----7----7--7----|--11/-9-----7----------| 
-----------------------|-------------------------|-----------------------| 
 
 
 
---------------------------|----------------------------------| 
---------------------------|----------------------------------| 
--11/-13----9----9--9--11--|--11--11--11--11--13--13--13--13--| 
--x---x-----x----x--x--x---|--x---x---x---x---x---x---x---x---| 
--9/--11----7----7--7--9---|--9---9---9---9---11--11--11--11--| 
---------------------------|----------------------------------| 
 
 
 
----------------------------------|----------------------| 
----------------------------------|----------------------| 
--14--14--14--14--16--16--16--16--|--9----9----9----9----| 
--x---x---x---x---x---x---x---x---|--9----9----9----9----| 
--12--12--12--12--14--14--14--14--|--7----7----7----7----| 
----------------------------------|----------------------| 
 
 
 
----------------------|--------------------------|--------------------------| 
----------------------|--------------------------|--------------------------| 
--8----8----8----8----|--------------------------|--------------------------| 
--9----9----9----9----|--7--7--7--7--7--7--7--7--|--7--7--7--7--7--7--7--7--| 
--6----6----6----6----|--7--7--7--7--7--7--7--7--|--7--7--7--7--7--7--7--7--| 
----------------------|--5--5--5--5--5--5--5--5--|--5--5--5--5--5--5--5--5--| 
 
 
 
----------------------|----------------------|--------------------------| 
----------------------|----------------------|--------------------------| 
--9----9----9----9----|--8----8----8----8----|--------------------------| 
--9----9----9----9----|--9----9----9----9----|--7--7--7--7--7--7--7--7--| 
--7----7----7----7----|--6----6----6----6----|--7--7--7--7--7--7--7--7--| 
----------------------|----------------------|--5--5--5--5--5--5--5--5--| 
 
 
 
--------------------------|--------------------------| 
--------------------------|--------------------------| 
--------------------------|--9--9--9--9--9--9--9--9--| 
--7--7--7--7--7--7--7--7--|--9--9--9--9--9--9--9--9--| 
--7--7--7--7--7--7--7--7--|--7--7--7--7--7--7--7--7--| 
--5--5--5--5--5--5--5--5--|--------------------------| 
 
 
 
--------------------------|--------------------------| 
--------------------------|--------------------------| 
--8--8--8--8--8--8--8--8--|--------------------------| 
--9--9--9--9--9--9--9--9--|--7--7--7--7--7--7--7--7--| 
--6--6--6--6--6--6--6--6--|--7--7--7--7--7--7--7--7--| 
--------------------------|--5--5--5--5--5--5--5--5--| 
 
 
 
--------------------------|--------------------------| 
--------------------------|--------------------------| 
--------------------------|--9--9--9--9--9--9--9--9--| 
--7--7--7--7--7--7--7--7--|--9--9--9--9--9--9--9--9--| 
--7--7--7--7--7--7--7--7--|--7--7--7--7--7--7--7--7--| 
--5--5--5--5--5--5--5--5--|--------------------------| 
 
 
 
--------------------------|--------------------------| 
--------------------------|--------------------------| 
--8--8--8--8--8--8--8--8--|--------------------------| 
--9--9--9--9--9--9--9--9--|--7--7--7--7--7--7--7--7--| 
--6--6--6--6--6--6--6--6--|--7--7--7--7--7--7--7--7--| 
--------------------------|--5--5--5--5--5--5--5--5--| 
 
 
                                                      3x 
--------------------------||--------------------0-----|| 
--------------------------||--------------------0-----|| 
--------------------------||*--------6-------8-------*|| 
--7--7--7--7--7--7--7--7--||*------------------------*|| 
--7--7--7--7--7--7--7--7--||------7-------------------|| 
--5--5--5--5--5--5--5--5--||---5--------7-------------|| 
 
 
                         15x 
--------------------0-----||-------------------0----|-------------------0----| 
--------------------0-----||-------------------0----|-------------------0----| 
*--------6-------8-------*||--------6-------8-------|--------6-------8-------| 
*------------------------*||------------------------|------------------------| 
------7-------------------||-----7------------------|-----7------------------| 
---5--------7-------------||--5--------7------------|--5--------7------------| 
 
 
 
-------------------0----|-------------------0----|| 
-------------------0----|-------------------0----|| 
--------6-------8-------|--------6-------8-------|| 
------------------------|------------------------|| 
-----7------------------|-----7------------------|| 
--5--------7------------|--5--------7------------|| 

	  

Search Paypal
auto scroll beats size up size down change color hide chords drawings
tab show chords e-chords YouTube Clip e-chords hide all tabs e-chords go to top tab