Goo Goo Dolls

home > Goo Goo Dolls

Think about me (solo) Tab

Goo Goo Dolls

Difficulty: BeginnerBeginner

by europeu

tuner correct add songbook print version text version save to e-mail
chordsukulelecavacokeyboardtabbassdrumsharmonicsflute Guitar Pro
chords

Think about me (solo)

  		e----------------------------------------------------------------------------| 
B----5------------5--------------------------------7-------------------------| 
G---------7------------------------------------7------7---7-----7----------7-| 
D---------------------7--6--7--6--7--6-----------------------7------9--7-----| 
A----------------------------------------------------------------------------| 
E----------------------------------------------------------------------------| 
 
e------------------------------------------------------------------------------| 
B------------------------------------------------------------------------------| 
G------------------------------------------------------------------------------| 
D---7---7--------7--------------------------7-----7-----------7-----7--------7-| 
A-----7-----9-------9---11---9---11---9--------7-------7/11------7-----9---7---| 
E------------------------------------------------------------------------------| 

	  

Search Paypal
auto scroll beats size up size down change color hide chords drawings
tab show chords e-chords YouTube Clip e-chords hide all tabs e-chords go to top tab