Goo Goo Dolls

home > Goo Goo Dolls

Symphaty Tab

Goo Goo Dolls

Difficulty: nolevelnolevel

by Cezinho

tuner correct add songbook print version text version save to e-mail
chordsukulelecavacokeyboardtabbassdrumsharmonicsflute Guitar Pro
chords

Symphaty

  		*Essa música soa melhor colocando uma pestaneira na 1ª casa do seu violão. 
*Se você não possuir uma, é possível tocá-la afinando meio tom acima cada uma das cordas. 
*A tablatura a seguir eu transcrevi como se estivesse afinada meio tom acima. Portanto, se você possuir a pestaneira a tablatura deve ser lida sempre um número acima do que foi transcrito: 

 (2xIntro) 
F |----------3---|   
A#|--0h3-2---2---|   
D#|----2---2-----|   
G#|--------2-----|   
C |----3-3-3-3---|   
F |----3-3-3-3---| 

(4x)           (2x)      (1x) 
F |----------3---|--3------|--3-2----|      
A#|--0h3-2---2---|--2---3--|--2---2--|   
D#|----2---2-----|----2-2--|---------|   
G#|--------2-----|----2----|---------|   
C |----3-3-3-3---|--3-3-3--|--3-3-3--|   
F |----3-3-3-3---|--3-3-3--|--3-3-3--| 

(*4x*) 
Stranger than your sympathy 
This is my apology 
I'm killing myself from the inside out 
And all my fears have pushed you out 

(*2x*) 
I wish for things that I don't need 
All I wanted 
And what I chase won't set me free 
All I wanted 

(*1x*) 
And I get scared but I'm not crawling on my knees 

F |--------------|      
A#|--3---3---3---|  
D#|--2-2-2-2-2-2-| 
G#|----2---2-----| 
C |--3-3-3-3-3-3-| 
F |--3-3-3-3-3-3-| 

Oh yeah everything's all wrong yeah 
Everything's all wrong yeah 
Where the hell did I think I was? 

F |---------------------| 
A#|---------------------| 
D#|------------2-0-0-2--| 
G#|--2/4-4/2-0----------| 
C |---------------------| 
F |---------------------| 

*Pequeno solo no final de cada estrofe 

(*4x*) 
Stranger than your sympathy 
I take these things so I don't feel 
I'm killing myself from the inside out 
Now my head's been filled with doubt 

(*2x*) 
It's hard to lead the life you choose 
All I wanted 
When all your luck's run out on you 
All I wanted 

(*1x*) 
You can't see when all your dreams are coming true 

Oh yeah it's easy to forget yeah 
You choke on the regrets yeah 
Who the hell did I think I was 

*Pequeno solo 

(4x)           (2x)        (1x) 
F |----------3---|----2-3----|-------------|      
A#|--0h3-2---2---|--2---2-3--|--2-3-2-3----|   
D#|----2---2-----|--------2--|----2---2----|   
G#|--------2-----|-----------|----------2--|   
C |----3-3-3-3---|--3-3-3-3--|--3-3-3-3-3--|   
F |----3-3-3-3---|--3-3-3-3--|--3-3-3-3-2--| 

(*4x*) 
Stranger than your sympathy 
All these thoughts you stole from me 
I'm not sure where I belong 
Nowhere's home and I'm all wrong 

(*2x*) 
And I wasn't all the things 
I tried to make believe I was 
And I wouldn't be the one to kneel 
Before the dreams I wanted 

(*1x*) 
And all the talk and all the lies 
Were all the empty things disguised as me 

*Pequeno solo 

(4x) 
F |----------3---|   
A#|--0h3-2---2---|   
D#|----2---2-----|   
G#|--------2-----|   
C |----3-3-3-3---|   
F |----3-3-3-3---| 

(*4x*) 
Mmmm...Yeah 
stranger than your sympathy 
stranger than your sympathy 
Mmmm...Mmmm 
	  

Search Paypal
auto scroll beats size up size down change color hide chords drawings
tab show chords e-chords YouTube Clip e-chords hide all tabs e-chords go to top tab