Goo Goo Dolls

home > Goo Goo Dolls

Souls In The Machine Tab

Goo Goo Dolls

Difficulty: nolevelnolevel

by ang%2Dletra

tuner correct add songbook print version text version save to e-mail
chordsukulelecavacokeyboardtabbassdrumsharmonicsflute Guitar Pro
chords

Souls In The Machine

  		
Tuning D G D G B D 

Intro 
Acoustic Guitar         play 4x 
D|-0-0-0-0--0--0-|-0-0-0-0-0-0-| 
B|-8-8-8-8-10-12-|-8-8-8-8-7-3-| 
G|-0-0-0-0--0--0-|-0-0-0-0-0-0-| 
D|-0-0-0-0--0--0-|-0-0-0-0-0-0-| 
G|-0-0-0-0--0--0-|-0-0-0-0-0-0-| 
D|---------------|-------------| 
  Mute the low string with your thumb. 

Electric Guitar         play 2x 
D|---------------|-------------| 
B|-8-8-8-8-10-12-|-8-8-8-8-7/8-| 
G|---------------|-------------| 
D|---------------|-------------| 
G|---------------|-------------| 
D|---------------|-------------| 

Verse 
Just strum these chords for two measures each: 
D|-0-------|-0-------| 
B|-8-------|-8-------| 
G|-0-------|-0-------| 
D|-0-------|-x-------| 
G|-x-------|-5-------| 
D|-5-------|---------|Play 3x 

Pre-Chorus 
One measure each. 
D|-0-------|-0-------| 
B|-8-------|-8-------| 
G|-0-------|-0-------| 
D|-x-------|-x-------| 
G|-7-------|-5-------|Play 3x the first Verse 
D|---------|---------|Play 2x the second Verse 

Chorus 
  3x        1x 
D|-0-------|-0-------| 
B|-8-------|-8-------| 
G|-0-------|-0-------| 
D|-0-------|-x-------| 
G|-x-------|-5-------| 
D|-5-------|---------|Play 2x 

  3x         *         * 
D|-0-------|-0-------|-0-------| 
B|-8-------|-8-------|-8-------| 
G|-0-------|-0-------|-0-------| 
D|-0-------|-x-------|-x-------| 
G|-x-------|-7-------|-5-------| 
D|-5-------|---------|---------| 
*Play and hold for one measure the first Chorus, two the second. 

Outro 
D|-0-------|-0-------|-0-------|-0-------| 
B|-8-------|-8-------|-8-------|-8-------| 
G|-0-------|-0-------|-0-------|-0-------| 
D|-x-------|-x-------|-0-------|-0-------| 
G|-9-------|-7-------|-x-------|-x-------| 
D|---------|---------|-5-------|-4-------| 

Solo 
D|-0--|-0-0-0-0--0--|--0--0--0--0--0--|--0--0--0--0--0--|--0--0--0--0--0--| 
B|-3/-|-8-8-8-8-10/-|-15-15-15-15-15\-|-12-12-12-12-12\-|-10-10-10-10-10\-| 
G|----|-------------|-----------------|-----------------|-----------------| 
D|----|-------------|-----------------|-----------------|-----------------| 
G|----|-------------|-----------------|-----------------|-----------------| 
D|----|-------------|-----------------|-----------------|-----------------| 


************************************ 

| x  Dead note 
| /  Slide up 
| \  Slide down 

************************************ 
	  

Search Paypal
auto scroll beats size up size down change color hide chords drawings
tab show chords e-chords YouTube Clip e-chords hide all tabs e-chords go to top tab