Goo Goo Dolls

home > Goo Goo Dolls

Let love in (ver. 2) Tab

Goo Goo Dolls

Difficulty: BeginnerBeginner

by europeu

tuner correct add songbook print version text version save to e-mail
chordsukulelecavacokeyboardtabbassdrumsharmonicsflute Guitar Pro
chords

Let love in (ver. 2)

  		DADAAD tuning 
 
Chord Postion: 
 
     D     Bm A  G  Em 
D|-0-or-0--0--0--0--0| 
D|-0-or-0--0--0--0--0| 
A|-0-or-0--0--0--0--0| 
D|-0-or-0--0--0--0--0| 
A|-5-or-0--9--7--5--2| 
D|-0-or-0--9--7--5--2| 
 
 
Verse1: 
 
D|----0-----0-----0---0-----0-----0---0-----0-----0---0-----0-----0---| 
A|------0-----0---------0-----0---------0-----0---------0-----0-------| 
A|--------0-----0---------0-----0---------0-----0---------0-----0-----| 
D|--------------------------------------------------------------------| 
A|------------------5-------------------------------------------------| 
D|--9-------------------------------7---------------2-----------------| 
 
 
D|----0-----0-----0---0-----0-----0---0-----0-----0---0-----0-----0---| 
D|------0-----0---------0-----0---------0-----0---------0-----0-------| 
A|--------0-----0---------0-----0---------0-----0---------0-----0-----| 
D|--------------------------------------------------------------------| 
A|------------------5-------------------------------5-----------------| 
D|--9-------------------------------5---------------------------------| 
 
 

	  

Full key step upFull key step up
Half key step upHalf key step up
Half key step downHalf key step down
Full key step downFull key step down
Search Paypal
auto scroll beats size up size down change color hide chords drawings
tab show chords e-chords YouTube Clip e-chords hide all tabs e-chords go to top tab