Goo Goo Dolls

home > Goo Goo Dolls

I'm Awake Now Tab

Goo Goo Dolls

Difficulty: nolevelnolevel

by PAULLET3

tuner correct add songbook print version text version save to e-mail
chordsukulelecavacokeyboardtabbassdrumsharmonicsflute Guitar Pro
chords

I'm Awake Now

  		
acoustic guitar 4x intro 
e|----4-----4-----4-----4-----4-----I---4-----4-----2---2---2-----------------| 
B|------4-----4-----4-----4-----4---I-----4-----4------4---4------------------| 
G|--4-----4-----4-----4-----4-----4-I-4-----4-----4---------------------------| 
D|----------------------------------I-----------------------------------------| 
A|----------------------------------I-----------------------------------------| 
E|----------------------------------I-----------------------------------------| 
distortion guitar verse 
e|--------------------------------------------------------------| 
B|--------------------------------------------------------------| 
G|---------------------------------6--8--9--9--9---9---9-9---9--| 
D|--4--4--6--6--6---6---6--6---6---6--8--9--9--9---9---9-9---9--| 
A|--4--4--6--6--6---6---6--6---6---4--6--7--7--7---7---7-7---7--| 
E|--2--2--4--4--4---4---4--4---4--------------------------------| 
distortion guitar bridge 
e|---------------------------------------------------------------------------| 
B|---------------------------------------------------------------------------| 
G|---------------------------------------------------------------------------| 
D|--9-9-9-9-9-9-9-9-9-9-9-9-9-9-9-9-6-6-6-6-6-6-6-6-6-6-6-6-6-6-4-4----------| 
A|--9-9-9-9-9-9-9-9-9-9-9-9-9-9-9-9-6-6-6-6-6-6-6-6-6-6-6-6-6-6-4-4----------| 
E|--7-7-7-7-7-7-7-7-6-6-6-6-6-6-6-6-4-4-4-4-4-4-4-4-4-4-4-4-4-4-2-2----------| 
distortion Chorus        clean guitar play under Chorus 
e|------------I-------I---7------7------7------7------7------7------7----------------| 
B|------------I-------I-----------------------------------------------------7---7--7-| 
G|------------I--9----I-----8------8------8------8------8------8------8-------8--8---| 
D|--6----4----I--9----I-6------6------6------6------6------6------6------6-----------| 
A|--6----4----I--7----I--------------------------------------------------------------| 
E|--4----2----I-------I--------------------------------------------------------------| 
OUTRO RIFF both played together 
clean 
e|---7------7------7------7------7------7------7----------------| 
B|-----------------------------------------------------7---7--7-| 
G|-----8------8------8------8------8------8------8-------8--8---| 
D|-6------6------6------6------6------6------6------6-----------| 
A|--------------------------------------------------------------| 
E|--------------------------------------------------------------| 
distortion 
e|--------------------------------------------------------------| 
B|--------------------------------------------------------------| 
G|---------------------------6-8--9-9--9--9--9-9--9-------------| 
D|--4-4--6-6--6--6--6-6---6--6-8--9-9--9--9--9-9--9-------------| 
A|--4-4--6-6--6--6--6-6---6--4-6--7-7--7--7--7-7--7-------------| 
E|--2-2--4-4--4--4--4-4---4-------------------------------------| 


how the song goes 
intro 
verse 2x 
bridge 1x 
verse 1x 
bridge 1x 
Chorus 2x 
verse 2x 
bridge 1x 
verse 1x 
Chorus 4x 
clean Chorus 4x 
outro  
	  

Search Paypal
auto scroll beats size up size down change color hide chords drawings
tab show chords e-chords YouTube Clip e-chords hide all tabs e-chords go to top tab