Gondwana

home > Gondwana

Solo es Verdadero Tab

Gondwana

Difficulty: nolevelnolevel

by Ratso+Simion

tuner correct add songbook print version text version save to e-mail
chordsukulelecavacokeyboardtabbassdrumsharmonicsflute Guitar Pro
chords

Solo es Verdadero

  		Intro: 
 
G|------------------------------| 
D|----------------------------0-| 
A|----0-0-0---3-------0-0-0-----|   x2 
E|0-3-------------0-3-----------| 
 
Riff 1: 
 
G|-------------------| 
D|---2--0-2-0--------| 
A|-0----------3-0--0-|   x4 
E|-------------------| 
 
Chorus: 
 
G|-------------------------------------| 
D|----------------------0--0---0-0-3---| 
A|--------------------3---3----------0-| 
E|-3-3-3-3---3-3-3-3-------------------| 
 
 
G|---------------------------------| 
D|-----------------------------2---| 
A|-------------------------0-3-----| 
E|-1-1-1-1---1-1-1-1---0-3---------| 
 
Verse 1: 
 
G|------------------| 
D|---2--0-2-0---0-3-| 
A|-0----------3-----|   x6 
E|------------------| 
 
 
G|-------------------| 
D|---2--0-2-0--------| 
A|-0----------3-0--0-|   x2 
E|-------------------| 
 
Verse 2: 
 
G|------------------| 
D|---2--0-2-0---0-3-| 
A|-0----------3-----|   x5 
E|------------------| 
 
 
G|-------------------| 
D|---2--0-2-0--------| 
A|-0----------3-0--0-| 
E|-------------------| 
 
Chorus: 
 
G|-------------------------------------| 
D|----------------------0--0---0-0-3---| 
A|--------------------3---3----------0-|   x3 
E|-3-3-3-3---3-3-3-3-------------------| 
 
 
G|---------------------------------| 
D|-----------------------------2---| 
A|-------------------------0-3-----| 
E|-1-1-1-1---1-1-1-1---0-3---------| 
 
Riff 2: 
 
G|------------------------------| 
D|----------------------------0-| 
A|----0-0-0---3-------0-0-0-----|   x2 
E|0-3-------------0-3-----------| 
 
 
G|-------------------| 
D|---2--0-2-0--------| 
A|-0----------3-0--0-|   x4 
E|-------------------| 
 
Verse 3: 
 
G|------------------| 
D|---2--0-2-0---0-3-| 
A|-0----------3-----|   x5 
E|------------------| 
 
 
G|-------------------| 
D|---2--0-2-0--------| 
A|-0----------3-0--0-| 
E|-------------------| 
 
Chorus: 
 
G|-------------------------------------| 
D|----------------------0--0---0-0-3---| 
A|--------------------3---3----------0-|   x3 
E|-3-3-3-3---3-3-3-3-------------------| 
 
 
G|---------------------------------| 
D|-----------------------------2---| 
A|-------------------------0-3-----|   x2 
E|-1-1-1-1---1-1-1-1---0-3---------| 
 
End: 
 
G|-------------------| 
D|---2--0-2-0--------| 
A|-0----------3-0--0-| 
E|-------------------| 
 
(Repeat untill end) 

	  

Search Paypal
auto scroll beats size up size down change color hide chords drawings
tab show chords e-chords YouTube Clip e-chords hide all tabs e-chords go to top tab