Gondwana

home > Gondwana

Ignorancia Tab

Gondwana

Difficulty: IntermediateIntermediate

by nacho%5F63

tuner correct add songbook print version text version save to e-mail
chordsukulelecavacokeyboardtabbassdrumsharmonicsflute Guitar Pro
chords

Ignorancia

  		e/--------------------------------- 
b/----7--5--------------------5---- 
g/-----------6--4------4-6---------   
d/------------------7-------------- 
a/--------------------------------- 
e/--------------------------------- 
 
e/---------------------------------------------------------------------4-------------------------------------- 
b/----7--5--------------------5--7--5------10--9--7---------4h5-----5----10--9--7----------------5------------ 
g/------------6--4-----4-6----------------------------9--6-----------------------------9--6--3s4-------------- 
d/-------------------7---------------------------------------------------------------------------------------- 
a/------------------------------------------------------------------------------------------------------------ 
e/------------------------------------------------------------------------------------------------------------ 
 
(CORO) 
 
     A      E  D              E 
Ignorancia...nuestro peor enemigo 
 
     A      E  D                          E 
Ignorancia...mejor voy a contarle a mis amigos que es... 
 
     A       E  D  E  
Ignorancia...               (Quedarse en E 2 tiempos) 
 
(VERSO_1) 
 
A                     E          D                E 
 Por que dices q me entiendes, si en realidad ni comprendes... 
 
      A        E             D        E 
Mi manera de ser..., y mi manera de ver... 
 
A                        E        D                 E   
 Y por que dices q me entiendes, si en realidad ni comprendes... 
 
 
          A          E                        A 
Quien yo soy...,lo que por este mundo hago y doy... oh oh oh 
 
A                    E        D                    E 
 Y por que finges escuchar , cuándo te vengo a contar... 
 
        A        E         D          E 
La tristeza de ayer , tu deberías saber... ¡Que es! 
 
 
(CORO) 
 
     A    E  D              E 
Ignorancia...nuestro peor enemigo 
 
     A    E  D                            E 
Ignorancia...mejor voy a contarle a mis amigos que es... 
 
     A        
Ignorancia...               
 
 
La parte de las trompetas es más o menos asi : 
 
e/-------------7--9-9-9-12--10--12--9----------7--9-9-9-12--10--12--14--- 
b/----9--10----------------------------------9--10----------------------- 
g/----------------------------------------------------------------------- 
d/----------------------------------------------------------------------- 
a/----------------------------------------------------------------------- 
e/----------------------------------------------------------------------- 
 
(VERSO_2) 
 
A                  E      D                 E 
 Vas enseñando mentiras , con tu propaganda fulminas... 
 
       A        E         D            E 
Toda imaginación , vas matando la emoción... 
 
A                   E             D                                       
 Como pretendes al cielo llegar , si en la tierra no hiciste  
 
 E                       A       E             D   
mas que mentir y traicionar , asi no lo vas a lograr... uoh...uoh...! 
 
A                     E              D                        E 
 Quieres hacer del espíritu ciencia , adaptando la historia a tu conveniencia 
 
     A             E                       D             E      
Pero ya partió el tren (shu shu) , no te quedes en el andén ... de la ... 
 
 
(CORO) 
 
     A    E  D             E 
Ignorancia...nuestro peor enemigo 
 
     A    E  D                                           E 
Ignorancia...mejor voy a contarle a mis amigos que es... 
 
     A       E  D  E  
Ignorancia...               
 
 
SOLO: 
 
e/------------------7---------------9-7--------------------------------------------7----------------------- 
b/----10-9-7--------10-9-7-5s7------10-9-7-10-9-5s7-9-7----10-9-7---------10-9-7-5s7°-7-9-10-10s12-10-9-7-- 
g/-------------9-6------------------------------------------------------------9-6-------------------------- 
d/--------------------------------------------------------------------------------------------------------- 
a/--------------------------------------------------------------------------------------------------------- 
e/--------------------------------------------------------------------------------------------------------- 
 
 
e/------------------7---------------9-7----------------------------------------------7--------------------- 
b/----10-9-7--------10-9-7-5s7------10-9-5s7-10-9-5s7-9-7----10-9-7--------10-9-7-5s7---------------------- 
g/-------------9-6---------------------------------------------------------------9-6----------------------- 
d/--------------------------------------------------------------------------------------------------------- 
a/--------------------------------------------------------------------------------------------------------- 
e/--------------------------------------------------------------------------------------------------------- 
 
(CORO) ¡¡¡sube un tono!!! 
 
     B   F#  E                F# 
Ignorancia...nuestro peor enemigo 
 
     B   F# E                             F# 
Ignorancia...mejor voy a contarle a mis amigos que es... 
 
     B     
Ignorancia...       
 
SOLO FINAL: 
 
     
e/---------------------------6-------------------------------- 
b/----12-11-9--------6h7---7----12-11-9-------------7--------- 
g/---------------11-8-------------------------11-8-5s6--------  2x 
d/------------------------------------------------------------	 
a/------------------------------------------------------------ 
e/------------------------------------------------------------
	  

Full key step upFull key step up
Half key step upHalf key step up
Half key step downHalf key step down
Full key step downFull key step down
Search Paypal
auto scroll beats size up size down change color hide chords drawings
tab show chords e-chords YouTube Clip e-chords hide all tabs e-chords go to top tab