Gondwana

home > Gondwana

Aire de Jah Tab

Gondwana

Difficulty: ExpertExpert

by Ratso+Simion

tuner correct add songbook print version text version save to e-mail
chordsukulelecavacokeyboardtabbassdrumsharmonicsflute Guitar Pro
chords

Aire de Jah

  		Chorus (x2): 

G|---------------------------------------------------| 
D|-0------------0--0-------------1---1---1---0---0---| 
A|---3-1-0-------------------------1---1-------1---1-| 
E|---------3--3------3---3-1--3----------------------| 

G|---------------------------------------------------| 
D|-0-----------------------------1---1---1---0---0---| 
A|---3-1-0-------------------------1---1-------1---1-| 
E|---------3--3-1--1-3---3-1--3----------------------| 

G|---------------------------------------------------| 
D|-0------------0--0-------------1---1---1---0---0---| 
A|---3-1-0-------------------------1---1-------1---1-| 
E|---------3--3------3---3-1--3----------------------| 

G|---------------------------------------------------| 
D|-0-----------------------------1---1---1---0---0---| 
A|---3-1-0-------------------------1---1-------1---1-| 
E|---------3--3-1--1-3---3-1--3----------------------| 

Verse 1: 

G|----| 
D|0---| 
A|----| 
E|----| 

G|-----------------------------------------------| 
D|-----0-0-----------------1-1---------0-0-------| 
A|---------1-1-0-----1---------1-1---------1-0---| x5 
E|-3-3------------3----------------3-----------1-| 

G|--------------------------------------| 
D|-----0-0-------------------1---------0| 
A|---------1-1-0-----1---------1-1------| 
E|-3-3------------3----------------3----| 

Chorus (x3): 

G|---------------------------------------------------| 
D|-0------------0--0-------------1---1---1---0---0---| 
A|---3-1-0-------------------------1---1-------1---1-| 
E|---------3--3------3---3-1--3----------------------| 

G|---------------------------------------------------| 
D|-0-----------------------------1---1---1---0---0---| 
A|---3-1-0-------------------------1---1-------1---1-| 
E|---------3--3-1--1-3---3-1--3----------------------| 

Verse 2: 

G|-----------------------------------------------| 
D|-----0-0-------------------1-----------0-------| 
A|---------1-1-0-----1---------1-1---------1-0---| x4 
E|-3-3------------3----------------3-----------1-| 

G|------------------------------------| 
D|-1--------1-------0--------0--------| 
A|-------1----------------0-----------| x3 
E|----3----------------2--------------| 

G|-------------------------------------------| 
D|---------------------------------1----0----| 
A|-3-3-0-0-3-3-0-0-3-3-0-0-3-3-0-0-----------| 
E|-------------------------------------------| 

Chorus: 

G|----| 
D|----| 
A|----| 
E|----| 

G|---------------------------------------------------| 
D|-0------------0--0-------------1---1---1---0---0---| 
A|-----1---------------------------1---1-------1---1-| 
E|---------3--3------3---3-1--3----------------------| 

G|---------------------------------------------------| 
D|-0-----------------------------1---1---1---0---0---| 
A|---3-1-0-------------------------1---1-------1---1-| 
E|---------3--3-1--1-3---3-1--3----------------------| 

G|---------------------------------------------------| 
D|-0------------0--0-------------1---1---1---0---0---| 
A|-----1---------------------------1---1-------1---1-| 
E|---------3--3------3---3-1--3----------------------| 

Verse 3: 

G|---------| 
D|-0-------| 
A|---3-1-0-| 
E|---------| 

G|------------------------------------------------------| 
D|--------0--0---------0--0--1-1--1--------0-0--0-------| 
A|----------------------------------1-1--1--------1--0--| x4 
E|-3-3--3-------3-3--3----------------------------------| 

Chorus: 

G|-------------------------------------------| 
D|------0--0-------------1---1---1---0---0---| 
A|-------------------------1---1-------1---1-| 
E|-3--3------3---3-1--3----------------------| 

G|------------------------------------------------------------| 
D|-0-----------------------------1---1---1---0---0---0--------| 
A|---3-1-0-------------------------1---1-------1---1---3-1-0--| 
E|---------3--3-1--1-3---3-1--3------------------------------3| 

	  

Search Paypal
auto scroll beats size up size down change color hide chords drawings
tab show chords e-chords YouTube Clip e-chords hide all tabs e-chords go to top tab