Golden Earring

Radar Love Tab

Golden Earring

Difficulty: BeginnerBeginner

by Rowane

tuner correct add songbook print version text version save to e-mail
chordsukulelecavacokeyboardtabbassdrumsharmonicsflute Guitar Pro
close

there isn't a video lesson for this song

chords

Radar Love

  		Radar Love: Golden Earring 
 
 
Intro. (guitar and bass): 
  / /   / / / /   / / / /   / / / / 
|-----|---------|---------|---------| 
|-----|---------|---------|---------| 
|-----|---------|---------|---------| 
|---2-|-4-------|-------2-|---------| 
|-4---|---------|-----4---|-2-------| 
|-----|---------|---------|---------| 
 
  / / / /   / / / /   / / / /   / / / /   / 
|---------|---------|---------|---------|--- 
|---------|---------|---------|---------|--- 
|---------|---2-----|---------|---------|--- 
|-------2-|-4---2---|---------|---------|--- 
|-----4---|---------|-0-------|-2-------|-2- 
|---------|---------|---------|---------|-0- 
 
Drum intro. 
 
Bass intro. 
 
There is a fill played at the end of every line in the 
verse.  Several different possible fill variation are 
included at the bottom of the tab. 
 
Bass line for verses: 
   /  /  /  /     /  /  /  /     /  /  /  /     /  /  /  / 
|--------------|--------------|--------------|-------------| 
|--------------|--------------|--------------|-------------| 
|--------------|--------------|--------------|-------------| 
|--2--2--2--2--|--2--2--2--5--|--2--2--2--2--|--2--2--2--0-| 
 
Verse 1: 
F#m 
I've been drivin' all night, my hands are wet on the wheel. 
There's a voice in my head that drives my heel. 
My baby call said I need you here. 
It's half past four and I'm shifting gears. 
 
Chorus: 
E                           B               F#m 
  When I get lonely and the longing gets too much, 
E                          B 
  She sends comfort coming in from above. 
C#                     E 
Don't need no radio at all. 
D        A            E            F#m 
We got a thing that's called radar love 
D          A           E 
  We got a wave in the air 
      F#m 
Radar love 
 
Verse 2: 
The radio's playin' some forgotten song. 
Brenda Lee's coming on strong. 
The road has got me hypnotized, 
As I spin into a new sunrise. 
 
(Chorus) 
 
Bass and keyboard interlude with guitar solo fading in: 
   /   /   /     /          /   /   /     / 
|------------------------|------------------------| 
|---10-9-9-12-10-9-9-10--|---10-9-9-12-10-10-10---| 
|----9-9-9--9--9-9-9--9--|----9-9-9--9--9--9--9---| 
|----9-9-9--9--9-9-9--9--|----9-9-9--9--9--9--9---| 
|------------------------|------------------------| 
|------------------------|------------------------| 
 
Jam over F#m chord and finish with 
 
C# C# C# C# C# C# C# 
 
Drums for 4 measures 
 
Guitar and bass: 
   / / / /     / / / /     / / / /    / / / / 
|-----------|-----------|----------|-----------| 
|-----------|-----------|----------|-----------| 
|.----------|-----------|----------|----------.| 
|.----------|-----------|----------|----------.| 
|------0-3--|--2--------|------0-2-|-----------| 
|--2--------|-----------|--2-------|--2--------| 
 
   / / / /     / / / /     / / / /    / / / / 
|-----------|-----------|----------|-----------| 
|-----------|-----------|----------|-----------| 
|.----------|-----------|----------|----------.| 
|.-------2--|--1--------|----------|----------.| 
|------0----|-----------|------0-2-|-----------| 
|--2--------|-----------|--2-------|--2--------| 
 
   / / / /     / / / /     / / / /     / / / / 
|-----------|-----------|-----------|----------| 
|-----------|-----------|-----------|----------| 
|-----------|-----------|-----------|----------| 
|-----------|-----------|--2---3-4--|----------| 
|------0-3--|--2---3-4--|-----------|--2-------| 
|--2--------|-----------|-----------|----------| 
 
   / / / /     / / / /     / / / /     / / / / 
|-----------|-----------|-----------|----------| 
|-----------|-----------|-----------|----------| 
|-----------|-----------|-----------|----------| 
|-----------|-----------|-----------|----------| 
|------0-3--|--2---3-4--|--0---2-3--|--2-------| 
|--2--------|-----------|-----------|--0-------| 
 
Drums and bass intro. repeated 
 
Verse 3: 
No more speed I'm almost there. 
Gotta keep cool, now, gotta take care. 
Last car to pass, here I go. 
The line of cars go down real slow. 
The radio plays that forgotten song. 
Brenda Lee's coming on strong. 
The news man sang his same song, 
One more radar lover gone. 
 
Chorus: 
E                                B            F#m 
When I'm feeling lonely and I'm sure I've had enough. 
E                              B 
  She sends the comfort coming in from above. 
C#                     E 
Don't need no radio at all 
D        A            E            F#m 
We got a thing that's called radar love 
D          A            E    F#m 
  We got a light in the sky 
D        A             E            F#m 
We got a thing and its called radar love 
D          A            E 
  We got a thing that's called 
      F#m 
Radar love 
 
End on an F#m 
 
 
Fill 1:          Fill 2:           Fill 3: 
|---------------||----------------||----------------------| 
|---------------||-14----17-------||----------------------| 
|-4/6-4-2-4-4-2-||-14----16-------||-16/18-16-14-16-16-14-| 
|-4/6-4-2-4-4-2-||----16----15/16-||-16/18-16-14-16-16-14-| 
|---------------||----------------||----------------------| 
|---------------||----------------||----------------------| 
 
Fill 4:                       Fill 5: 
|----------------------------||----------------------------| 
|----------------------------||----------------------------| 
|--4^6-4^6-4-2---------------||--------2---2-4-4^6-^6-2----| 
|--------------4-------------||--2-3-4---4-----------------| 
|----------------------------||----------------------------| 
|----------------------------||----------------------------| 
 
Fill 6:                       Fill 7: 
|---14-14---14-14------------||-----17---------------------| 
|---14-14---14-14------------||----------------------------| 
|----------------------------||--------16^18^18-14---------| 
|----------------------------||--16------------------------| 
|----------------------------||----------------------------| 
|----------------------------||----------------------------| 
 
Fill 8:                         Fill 9: 
|------------------------------||--------------------------| 
|------------------------------||--------------------------| 
|--------14-16-14-16^18^18-14--||--16^18^18-14-------------| 
|--14-16-----------------------||--------------------------| 
|------------------------------||--------------------------| 
|------------------------------||--------------------------| 
 
Fill 10:                      Fill 11: 
|----------------------------||------17^19^19^19-17-14-----| 
|----------------------------||---14-----------------------| 
|-------2--------------------||----------------------------| 
|---2-4-2--------------------||----------------------------| 
|----------------------------||----------------------------| 
|----------------------------||----------------------------| 
 

	  

Full key step upFull key step up
Half key step upHalf key step up
Half key step downHalf key step down
Full key step downFull key step down
auto scroll beats size up size down change color hide chords drawings
tab show chords e-chords YouTube Clip e-chords hide all tabs e-chords go to top tab

share with facebook

Search Paypal