Gojira

1990 Quatrillions De Tonnes

Gojira

tabs

by  LINEKERS

save to print version add songbook text version e-mail correct tuner
chordsukulelecavacokeyboardtabbassdrumsharmonicaflute Guitar Pro
close

there isn't a video lesson for this song

chords

1990 Quatrillions De Tonnes

	  		


This is the main riff: 

|----------------------------------------------------| 
|----------------------------------------------------| 
|----------------------------------------------------| 
|-------7-5v~-----5~-----5~--------5-/7v~~~~---------| 
|-5h6------------------------------------------------| 
|--------------6~-----5~-----------------------------| 


Now through out the song there are a couple variations 

Variation 1: 
|----------------------------------------------------| 
|----------------------------------------------------| 
|----------------------------------------------------| 
|-------7-5v~-----5~-----5~--------5-5-5~~~~---------| 
|-5h6------------------------------------------------| 
|--------------6~-----5~-----------------------------| 


Variation 2: 
|----------------------------------------------------| 
|----------------------------------------------------| 
|----------------------------------------------------| 
|-------7-5v~-----5~-----5~--------5~~---------------| 
|-5h6------------------------------------------------| 
|--------------6~-----5~-----------------------------| 
		  

See also:

tabs Gojira - Pain Is A Master tabs Gojira - Explosia tabs Gojira - Stranded tabs Gojira - Terra Incognita tabs Gojira - The Wild Healer tabs Gojira - 1990 Quatrillions De Tonnes
e-chords

Other versions:

tabs Gojira - 1990 Quatrillions De Tonnes
auto scroll beats size up size down change color hide chords drawings
tab show chords e-chords YouTube Clip e-chords hide all tabs e-chords go to top tab

share