save to print version add songbook text version e-mail correct tuner
chordsukulelecavacokeyboardtabbassdrumsharmonicaflute Guitar Pro
close

there isn't a video lesson for this song

chords

Sleep

Key:  F More
Sleep Key CC
Sleep Key C#C#
Sleep Key DD
Sleep Key D#D#(one step down)
Sleep Key EE(half step down)
Sleep Key FF(original key)
Sleep Key F#F#(half step up)
Sleep Key GG(one step up)
Sleep Key G#G#
Sleep Key AA
Sleep Key A#A#
Sleep Key BB
	  		


PATTERN ONE: 

01:10 
Db -------------------------| 
Bb -------------------------| 
F  --12-------13-13p12------| 
Eb --10-------10-10---------| x2 
Bb --0--------0--0----------| 
Eb -------------------------| 

Db -------------------------------------------------| 
Bb -------------------------------------------------| 
F  --12-------12-12----------10-------10-10---------| 
Eb --9--------9--9-----------9--------9--9----------| 
Bb --0--------0--0-----------0--------0--0----------| 
Eb -------------------------------------------------| 

Db -------------------------| 
Bb -------------------------| 
F  --10-------12-12p10------| 
Eb --8--------8--8----------| x2 
Bb --0--------0--0----------| 
Eb -------------------------| 

Db -------------------------------------------------| 
Bb --0--------0--0-----------0--------0--0----------| 
F  --8--------8--8-----------7--------7--7----------| 
Eb --7--------7--7-----------7--------7--7----------| 
Bb --0--------0--0-----------0--------0--0----------| 
Eb -------------------------------------------------| 

Repeat PATTERN ONE again three more times 01:47 - 03:27 and then play.. 


PATTERN TWO: 

03:27 Play very gently. I have only tabbed when the notes change. 
The open bottom Bb is quietly played more often.. 
Db -------------------------------------------------| 
Bb -------------------------------------------------| 
F  -------------------------------------------------| 
Eb --10-------10----------10----------10-------10---| 
Bb --0--------0-----------0-----------0--------0----| 
Eb -------------------------------------------------| 

Db -------------------------------------------------| 
Bb -------------------------------------------------| 
F  -------------------------------------------------| 
Eb --9--------9-----------9-----------9--------9----| 
Bb --0--------0-----------0-----------0--------0----| 
Eb -------------------------------------------------| 

Db -------------------------------------------------| 
Bb -------------------------------------------------| 
F  -------------------------------------------------| 
Eb --8--------8-----------8-----------8--------8----| 
Bb --0--------0-----------0-----------0--------0----| 
Eb -------------------------------------------------| 

Db -------------------------------------------------| 
Bb -------------------------------------------------| 
F  -------------------------------------------------| 
Eb --7----------------------------------------------| 
Bb --0----------------------------------------------| 
Eb -------------------------------------------------| 


PATTERN THREE: 

04:01 
Db -------------------------------------------------| 
Bb --12----------------12----10---------------------| 
F  --X-----------------X-----X----------------------| 
Eb --10----------------10----10---------------------| 
Bb --0-----------------0-----0----------------------| 
Eb -------------------------------------------------| 

Db -------------------------------------------------| 
Bb --7-----------------------7--------5-------------| 
F  --0-----------------------X--------X-------------| 
Eb --5-----------------------4--------4-------------| 
Bb --0-----------------------0--------0-------------| 
Eb -------------------------------------------------| 

Db -------------------------------------------------| 
Bb --5-----------------------8-----------11---------| 
F  --X-----------------------X-----------X----------| 
Eb --3-----------------------6-----------9----------| 
Bb --0-----------------------0-----------0----------| 
Eb -------------------------------------------------| 

Db -------------------------------------------------| 
Bb --12---------------------------------------------| 
F  --X----------------------------------------------| 
Eb --10---------------------------------------------| 
Bb --0----------------------------------------------| 
Eb -------------------------------------------------| 

Repeat PATTERN THREE again 04:37 - 05:10 and then play.. 


PATTERN THREE (variation): 

05:10 
Db -------------------------------------------------| 
Bb --12----------------12----10---------------------| 
F  --X-----------------X-----X----------------------| 
Eb --10----------------10----10---------------------| 
Bb --0-----------------0-----0----------------------| 
Eb -------------------------------------------------| 

Db -------------------------------------------------| 
Bb --7-----------------------7--------5-------------| 
F  --0-----------------------X--------X-------------| 
Eb --5-----------------------4--------4-------------| 
Bb --0-----------------------0--------0-------------| 
Eb -------------------------------------------------| 

Db -------------------------------------------------| 
Bb --5-----------------------8-----7-----11---------| 
F  --X-----------------------X-----X-----X----------| 
Eb --3-----------------------6-----5-----9----------| 
Bb --0-----------------------0-----0-----0----------| 
Eb -------------------------------------------------| 

Db -------------------------------------------------| 
Bb --12---------------------------------------------| 
F  --X----------------------------------------------| 
Eb --10---------------------------------------------| 
Bb --0----------------------------------------------| 
Eb -------------------------------------------------| 


Play PATTERN 2 twice05:43 - 06:46 


PATTERN FOUR: 

6:46 All notes played on the Eb string are pretty much repeated 
semi-quavers but there isn't much space to tab it all out.. 
Db -------------------------------------------------| 
Bb --12----------------12----11---------------------| 
F  --X-----------------X-----X----------------------| 
Eb --10----------------10----10---------------------| 
Bb --0-----------------0-----0----------------------| 
Eb -------------------------------------------------| 

Db -------------------------------------------------| 
Bb --11----------------11----10---------------------| 
F  --X-----------------X-----X----------------------| 
Eb --9-----------------9-----9----------------------| 
Bb --0-----------------0-----0----------------------| 
Eb -------------------------------------------------| 

Db -------------------------------------------------| 
Bb --10----------------10----9----------------------| 
F  --X-----------------X-----X----------------------| 
Eb --8-----------------8-----8----------------------| 
Bb --0-----------------0-----0----------------------| 
Eb -------------------------------------------------| 

Db -------------------------------------------------| 
Bb -(7)-----------repeated-semi-quavers-------------| 
F  -------------------------------------------------| 
Eb --7------------repeated-semi-quavers-------------| 
Bb --0------------repeated-semi-quavers-------------| 
Eb -------------------------------------------------| 

 
		  

See also:

tabs Mac Demarco - Babys Wearing Blue Jeans tabs Sum 41 - Moron tabs Sum 41 - Hyper-Insomnia-para-Condroid tabs Adam Gontier - It's All In Your Hands tabs Sum 41 - Little Know it all tabs Sum 41 - All She Gots
e-chords

Other versions:

tabs iOTA - Sleep tabs Citizen - Sleep tabs Godspeed You Black Emperor - Sleep tabs Royal Blood - Sleep tabs Jason Mraz - Sleep All Day tabs Jason Mraz - Sleep All Day (acoustic)
auto scroll beats size up size down change color hide chords drawings
tab show chords e-chords YouTube Clip e-chords hide all tabs e-chords go to top tab

share