Go-Betweens

Your Turn My Turn

Go-Betweens

tabs

by  IRONPOWER4EVER

save to print version add songbook text version e-mail correct tuner
chordsukulelecavacokeyboardtabbassdrumsharmonicaflute Guitar Pro
close

there isn't a video lesson for this song

chords

Your Turn My Turn

	  		

Intro: 
e|------------------------------------------------------| 
B|-------------------6-----6-----6----------------------| 
G|-------------------7-----7-----7----------------------| 
D|------------------------------------------------------| 
A|------------------------------------------------------| 
E|------------------------------------------------------| 
+ 
e|------------------------------------------------------| 
B|-------------------------------------11----10---------| 
G|-5-----5-----5----------------------------------------| 
D|-7-----7-----7----------------------------------------| 
A|------------------------------------------------------| 
E|------------------------------------------------------| 
+ 
e|------------------------------------------------------| 
B|-------------------6-----------#----------------------| 
G|-------------------7-----------#----------------------| 
D|------------------------------------------------------| 
A|------------------------------------------------------| 
E|------------------------------------------------------| 
+ 
e|------------------------------------------------------| 
B|-------------------10----11----------11----10---------| 
G|-5-----------#----------------------------------------| 
D|-7-----------#----------------------------------------| 
A|------------------------------------------------------| 
E|------------------------------------------------------| 



VERSE I: 
e|------------------------------------------------------| 
B|-------------------7--------7--7--#-------------------| 
G|-------------------7--------7--7--#-------------------| 
D|-------------------7--------7--7--#-------------------| 
A|------------------------------------------------------| 
E|------------------------------------------------------| 
+ 
e|-------------------5-----5-----5-----5-----5-----5----| 
B|-5--------5--5--#--6-----6-----6-----6-----6-----6----| 
G|-5--------5--5--#--5-----5-----5-----5-----5-----5----| 
D|-5--------5--5--#-------------------------------------| 
A|------------------------------------------------------| 
E|------------------------------------------------------| 
+ 
e|------------------------------------------------------| 
B|-------------------7--------7--7--#-------------------| 
G|-------------------7--------7--7--#-------------------| 
D|-------------------7--------7--7--#-------------------| 
A|------------------------------------------------------| 
E|------------------------------------------------------| 
+ 
e|-------------------------------------5-----5----------| 
B|-5--------5--5--#--------------------6-----6-----#----| 
G|-5--------5--5--#--------------------5-----5-----#----| 
D|-5--------5--5--#--------------------------------#----| 
A|------------------------------------------------------| 
E|------------------------------------------------------| 
+ 
e|------------------------------------------------------| 
B|-------------------7-----------#----------------------| 
G|-------------------7-----------#----------------------| 
D|-------------------7-----------#----------------------| 
A|------------------------------------------------------| 
E|------------------------------------------------------| 
+ 
e|-------------------------------------5-----5----------| 
B|-5-----------#-----------------------6-----6-----#----| 
G|-5-----------#-----------------------5-----5-----#----| 
D|-5-----------#-----------------------------------#----| 
A|------------------------------------------------------| 
E|------------------------------------------------------| 
+ 
e|-------------------------------------------------------------------0----| 
B|-------------------7--------7--7--#--------------------5-----------0--#-| 
G|-------------------7--------7--7--#--------------------5-----------5--#-| 
D|-------------------7--------7--7--#--------------------5-----------5--#-| 
A|------------------------------------------------------------------------| 
E|------------------------------------------------------------------------| 



Chorus: 
e|-5-----5-----5-----5-----5-----5----------------------| 
B|-6-----6-----6-----6-----6-----6-----6-----6-----6----| 
G|-5-----5-----5-----5-----5-----5-----7-----7-----7----| 
D|-------------------------------------8-----8-----8----| 
A|------------------------------------------------------| 
E|------------------------------------------------------| 
+ 
e|-------------------5-----5-----5-----5-----5-----5----| 
B|-6-----6-----6-----6-----6-----6-----6-----6-----6----| 
G|-7-----7-----7-----5-----5-----5-----5-----5-----5----| 
D|-8-----8-----8----------------------------------------| 
A|------------------------------------------------------| 
E|------------------------------------------------------| 
+ 
e|-------------------------------------5-----5-----5----| 
B|-6-----6-----6-----6-----6-----6-----6-----6-----6----| 
G|-7-----7-----7-----7-----7-----7-----5-----5-----5----| 
D|-8-----8-----8-----8-----8-----8----------------------| 
A|------------------------------------------------------| 
E|------------------------------------------------------| 
+ 
e|-5-----5-----5-----5-----5-----5-----5-----5-----5----| 
B|-6-----6-----6-----6-----6-----6-----6-----6-----6----| 
G|-5-----5-----5-----7-----7-----7-----7-----7-----7----| 
D|-------------------7-----7-----7-----7-----7-----7----| 
A|------------------------------------------------------| 
E|------------------------------------------------------| 
+ 
e|------------------------------------------------------------------------| 
B|-3-----3-----3-----3-----3-----3-----3-----3-----3-----3-----3-----3----| 
G|-4-----4-----4-----4-----4-----4-----4-----4-----4-----4-----4-----4----| 
D|-5-----5-----5-----5-----5-----5-----5-----5-----5-----5-----5-----5----| 
A|------------------------------------------------------------------------| 
E|------------------------------------------------------------------------| 



INTERLUDE I: 
e|------------------------------------------------------| 
B|------------------------------------------------------| 
G|------------------------------------------------------| 
D|-------------------0-----0-----0-----2----------------| 
A|------------------------------------------------------| 
E|------------------------------------------------------| 
+ 
e|------------------------------------------------------| 
B|------------------------------------------------------| 
G|-2----------------------------------------------------| 
D|------------------------------------------------------| 
A|------------------------------------------------------| 
E|------------------------------------------------------| 
+ 
e|------------------------------------------------------| 
B|------------------------------------------------------| 
G|-------4-----0-----------------------2----------------| 
D|-2-----------------4-----------0----------------------| 
A|-------------------------------------3-----3-----3----| 
E|------------------------------------------------------| 
+ 
e|------------------------------------------------------| 
B|------------------------------------------------------| 
G|-3----------/5----------------------------------------| 
D|------------------------------------------------------| 
A|------------------------------------------------------| 
E|------------------------------------------------------| 



VERSE II: 
e|------------------------------------------------------| 
B|-------------------7--------7--7--#-------------------| 
G|-------------------7--------7--7--#-------------------| 
D|-------------------7--------7--7--#-------------------| 
A|------------------------------------------------------| 
E|------------------------------------------------------| 
+ 
e|-------------------5-----5-----5-----5-----5-----5----| 
B|-5--------5--5--#--6-----6-----6-----6-----6-----6----| 
G|-5--------5--5--#--5-----5-----5-----5-----5-----5----| 
D|-5--------5--5--#-------------------------------------| 
A|------------------------------------------------------| 
E|------------------------------------------------------| 
+ 
e|------------------------------------------------------| 
B|-------------------7--------7--7--#-------------------| 
G|-------------------7--------7--7--#-------------------| 
D|-------------------7--------7--7--#-------------------| 
A|------------------------------------------------------| 
E|------------------------------------------------------| 
+ 
e|-------------------------------------5-----5-----5----| 
B|-5--------5--5--#--------------------6-----6-----6----| 
G|-5--------5--5--#--------------------5-----5-----5----| 
D|-5--------5--5--#-------------------------------------| 
A|------------------------------------------------------| 
E|------------------------------------------------------| 
+ 
e|------------------------------------------------------| 
B|-------------------7-----------#----------------------| 
G|-------------------7-----------#----------------------| 
D|-------------------7-----------#----------------------| 
A|------------------------------------------------------| 
E|------------------------------------------------------| 
+ 
e|-------------------------------------5-----5----------| 
B|-5-----------#-----------------------6-----6-----#----| 
G|-5-----------#-----------------------5-----5-----#----| 
D|-5-----------#-----------------------------------#----| 
A|------------------------------------------------------| 
E|------------------------------------------------------| 
+ 
e|------------------------------------------------------------------------| 
B|-------------------7--------7--7--#--------------------5--------5--5--#-| 
G|-------------------7--------7--7--#--------------------5--------5--5--#-| 
D|-------------------7--------7--7--#--------------------5--------5--5--#-| 
A|------------------------------------------------------------------------| 
E|------------------------------------------------------------------------| 



Bridge: 
e|------------------------------------------------------| 
B|-1-----1-----1-----1-----1-----1-----6-----6-----6----| 
G|-2-----2-----2-----2-----2-----2-----7-----7-----7----| 
D|-3-----3-----3-----3-----3-----3-----8-----8-----8----| 
A|------------------------------------------------------| 
E|------------------------------------------------------| 
+ 
e|-------------------1-----1-----1-----1-----1-----1----| 
B|-6-----6-----6-----1-----1-----1-----1-----1-----1----| 
G|-7-----7-----7-----2-----2-----2-----2-----2-----2----| 
D|-8-----8-----8-----3-----3-----3-----3-----3-----3----| 
A|------------------------------------------------------| 
E|------------------------------------------------------| 
+ 
e|-6-----6-----6-----6-----6-----6-----1-----1-----1----| 
B|-6-----6-----6-----6-----6-----6-----1-----1-----1----| 
G|-7-----7-----7-----7-----7-----7-----2-----2-----2----| 
D|-8-----8-----8-----8-----8-----8-----3-----3-----3----| 
A|------------------------------------------------------| 
E|------------------------------------------------------| 
+ 
e|-1-----1-----1-----5-----5-----5-----5-----5-----5----| 
B|-1-----1-----1-----6-----6-----6-----6-----6-----6----| 
G|-2-----2-----2-----7-----7-----7-----7-----7-----7----| 
D|-3-----3-----3-----7-----7-----7-----7-----7-----7----| 
A|------------------------------------------------------| 
E|------------------------------------------------------| 
+ 
e|-3-----3-----3-----3-----3-----3-----3-----3-----3-----3-----3-----3----| 
B|-3-----3-----3-----3-----3-----3-----3-----3-----3-----3-----3-----3----| 
G|-4-----4-----4-----4-----4-----4-----4-----4-----4-----4-----4-----4----| 
D|-5-----5-----5-----5-----5-----5-----5-----5-----5-----5-----5-----5----| 
A|------------------------------------------------------------------------| 
E|------------------------------------------------------------------------| 



INTERLUDE II: 
e|------------------------------------------------------| 
B|-------------------6-----------\----------------------| 
G|-------------------7-----------\----------------------| 
D|------------------------------------------------------| 
A|------------------------------------------------------| 
E|------------------------------------------------------| 
+ 
e|------------------------------------------------------| 
B|------------------------------------------------------| 
G|-5-----------#------2----3-----------3-----2----------| 
D|-7-----------#----------------------------------------| 
A|------------------------------------------------------| 
E|------------------------------------------------------| 
+ 
e|------------------------------------------------------| 
B|-------------------6-----6-----6-----#----------------| 
G|-------------------7-----7-----7-----#----------------| 
D|------------------------------------------------------| 
A|------------------------------------------------------| 
E|------------------------------------------------------| 
+ 
e|------------------------------------------------------| 
B|------------------------------------------------------| 
G|-5-----5-----5-----------------------3-----2----------| 
D|-7-----7-----7----------------------------------------| 
A|------------------------------------------------------| 
E|------------------------------------------------------| 



OUTRO: 
e|------------------------------------------------------| 
B|-1-----1-----1-----1-----1-----1-----6-----6-----6----| 
G|-2-----2-----2-----2-----2-----2-----7-----7-----7----| 
D|-3-----3-----3-----3-----3-----3-----8-----8-----8----| 
A|------------------------------------------------------| 
E|------------------------------------------------------| 
+ 
e|-------------------1-----1-----1-----1-----1-----1----| 
B|-6-----6-----6-----1-----1-----1-----1-----1-----1----| 
G|-7-----7-----7-----2-----2-----2-----2-----2-----2----| 
D|-8-----8-----8-----3-----3-----3-----3-----3-----3----| 
A|------------------------------------------------------| 
E|------------------------------------------------------| 
+ 
e|-6-----6-----6-----6-----6-----6-----1-----1-----1----| 
B|-6-----6-----6-----6-----6-----6-----1-----1-----1----| 
G|-7-----7-----7-----7-----7-----7-----2-----2-----2----| 
D|-8-----8-----8-----8-----8-----8-----3-----3-----3----| 
A|------------------------------------------------------| 
E|------------------------------------------------------| 
+ 
e|-1-----1-----1-----5-----5-----5-----5-----5-----5----| 
B|-1-----1-----1-----6-----6-----6-----6-----6-----6----| 
G|-2-----2-----2-----7-----7-----7-----7-----7-----7----| 
D|-3-----3-----3-----7-----7-----7-----7-----7-----7----| 
A|------------------------------------------------------| 
E|------------------------------------------------------| 
+ 
e|-3-----3-----3-----3-----3-----3-----3-----3-----3----| 
B|-3-----3-----3-----3-----3-----3-----3-----3-----3----| 
G|-4-----4-----4-----4-----4-----4-----4-----4-----4----| 
D|-5-----5-----5-----5-----5-----5-----5-----5-----5----| 
A|------------------------------------------------------| 
E|------------------------------------------------------| 
+ 
e|-3-----3-----3-----3-----3-----3-----3-----3-----3----| 
B|-3-----3-----3-----3-----3-----3-----3-----3-----3----| 
G|-4-----4-----4-----4-----4-----4-----4-----4-----4----| 
D|-5-----5-----5-----5-----5-----5-----5-----5-----5----| 
A|------------------------------------------------------| 
E|------------------------------------------------------| 
+ 
e|-3-----3-----3-----3-----3-----3-----3-----3-----3----| 
B|-3-----3-----3-----3-----3-----3-----3-----3-----3----| 
G|-4-----4-----4-----4-----4-----4-----4-----4-----4----| 
D|-5-----5-----5-----5-----5-----5-----5-----5-----5----| 
A|------------------------------------------------------| 
E|------------------------------------------------------| 
+ 
e|-3-----3-----3-----3-----3-----3-----3-----3-----3-----3----------------| 
B|-3-----3-----3-----3-----3-----3-----3-----3-----3-----3----------------| 
G|-4-----4-----4-----4-----4-----4-----4-----4-----4-----4----------------| 
D|-5-----5-----5-----5-----5-----5-----5-----5-----5-----5----------------| 
A|------------------------------------------------------------------------| 
E|------------------------------------------------------------------------| 



SONG STRUCTURE: 

INTRO 
VERSE I 
Chorus 
INTERLUDE I 
VERSE II 
Chorus 
BRIDGE 
INTERLUDE II 
VERSE II 
Chorus 
OUTRO  
		  

See also:

tabs Natalie Imbruglia - Torn tabs Ball Park Music - Everything Is Shit Except My Friendship With You tabs Julia Stone - The Memory Machine tabs The Jungle Giants - Devils In The Detail tabs Jayesslee - Failure In Disguise tabs 5 Seconds Of Summer - Teenage Dream
e-chords

Other versions:

tabs Go-Betweens - Your Turn My Turn
auto scroll beats size up size down change color hide chords drawings
tab show chords e-chords YouTube Clip e-chords hide all tabs e-chords go to top tab

share