Go-Betweens

I Need Two Heads

Go-Betweens

tabs

by  IRONPOWER4EVER

save to print version add songbook text version e-mail correct tuner
chordsukulelecavacokeyboardtabbassdrumsharmonicaflute Guitar Pro
close

there isn't a video lesson for this song

chords

I Need Two Heads

	  		

Intro: 
Guitar I 
e|-7--------7--------------7--------7-------------|| 
B|-8--------8--------------8--------8-------------|| 
G|-9--------9--------------9--------9-------------|| x 4 
D|-9--------9--------------9--------9-------------|| 
A|-7--------7--------------7--------7-------------|| 
E|------------------------------------------------|| 



VERSE I: 
Guitars I 
e|------------------------------------------------| 
B|-------5--0--------1--0--------7--0--------3----| 
G|-5-----5--0--2-----2--0--7-----7--0--4-----4----| 
D|-5-----5--0--2-----2--0--7-----7--0--4-----4----| 
A|-3-----3-----0-----0-----5-----5-----2-----2----| 
E|------------------------------------------------| 
+ 
e|-------7--7--7--7--7-----------7--7--7--7--7--7-| 
B|-8-----8--8--8--8--8-----8-----8--8--8--8--8--8-| 
G|-9-----9--9--9--9--9--9--9-----9--9--9--9--9--9-| 
D|-9-----9--9--9--9--9--9--9-----9--9--9--9--9--9-| 
A|-7-----7--7--7--7--7--7--7-----7--7--7--7--7--7-| 
E|------------------------------------------------| 
+ 
e|------------------------------------------------| 
B|-------5--0--------1--0--------7--0--------3----| 
G|-5-----5--0--2-----2--0--7-----7--0--4-----4----| 
D|-5-----5--0--2-----2--0--7-----7--0--4-----4----| 
A|-3-----3-----0-----0-----5-----5-----2-----2----| 
E|------------------------------------------------| 
+ 
e|-7-----7-----7--7--7--7--7-----7-----7--7--7--7-| 
B|-8-----8-----8--8--8--8--8-----8-----8--8--8--8-| 
G|-9-----9-----9--9--9--9--9-----9-----9--9--9--9-| 
D|-9-----9-----9--9--9--9--9-----9-----9--9--9--9-| 
A|-7-----7-----7--7--7--7--7-----7-----7--7--7--7-| 
E|------------------------------------------------| 
+ 
e|------------------------------------------------| 
B|-------5--0--------1--0--------7--0--------3----| 
G|-5-----5--0--2-----2--0--7-----7--0--4-----4----| 
D|-5-----5--0--2-----2--0--7-----7--0--4-----4----| 
A|-3-----3-----0-----0-----5-----5-----2-----2----| 
E|------------------------------------------------| 
+ 
e|-7-----7-----7--7--7--7--7-----7-----7--7--7--7-| 
B|-8-----8-----8--8--8--8--8-----8-----8--8--8--8-| 
G|-9-----9-----9--9--9--9--9-----9-----9--9--9--9-| 
D|-9-----9-----9--9--9--9--9-----9-----9--9--9--9-| 
A|-7-----7-----7--7--7--7--7-----7-----7--7--7--7-| 
E|------------------------------------------------| 



VERSE I: 
Guitars II 
e|------------------------------------------------| 
B|-------5--0--------1--0--------7--0--------3----| 
G|-5-----5--0--2-----2--0--7-----7--0--4-----4----| 
D|-5-----5--0--2-----2--0--7-----7--0--4-----4----| 
A|-3-----3-----0-----0-----5-----5-----2-----2----| 
E|------------------------------------------------| 
+ 
e|-7-----7-----7--7--7--7--7-----7-----7--7--7--7-| 
B|-8-----8-----8--8--8--8--8-----8-----8--8--8--8-| 
G|-9-----9-----9--9--9--9--9-----9-----9--9--9--9-| 
D|-9-----9-----9--9--9--9--9-----9-----9--9--9--9-| 
A|-7-----7-----7--7--7--7--7-----7-----7--7--7--7-| 
E|------------------------------------------------| 
+ 
e|------------------------------------------------| 
B|-------5--0--------1--0--------7--0--------3----| 
G|-5-----5--0--2-----2--0--7-----7--0--4-----4----| 
D|-5-----5--0--2-----2--0--7-----7--0--4-----4----| 
A|-3-----3-----0-----0-----5-----5-----2-----2----| 
E|------------------------------------------------| 
+ 
e|------------------------------------------------| 
B|-8-----8--#--x--8--#-----8-----8-----8--8--8----| 
G|-9-----9--#--x--9--#-----9-----9-----9--9--9----| 
D|-9-----9--#--x--9--#-----9-----9-----9--9--9----| 
A|-7-----------------------7-----7-----7--7--7----| 
E|------------------------------------------------| 
+ 
e|------------------------------------------------| 
B|-------5--0--------1--0--------7--0--------3----| 
G|-5-----5--0--2-----2--0--7-----7--0--4-----4----| 
D|-5-----5--0--2-----2--0--7-----7--0--4-----4----| 
A|-3-----3-----0-----0-----5-----5-----2-----2----| 
E|------------------------------------------------| 
+ 
e|-7-----7-----7--7--7--7--7-----7-----7--7--7--7-| 
B|-8-----8-----8--8--8--8--8-----8-----8--8--8--8-| 
G|-9-----9-----9--9--9--9--9-----9-----9--9--9--9-| 
D|-9-----9-----9--9--9--9--9-----9-----9--9--9--9-| 
A|-7-----7-----7--7--7--7--7-----7-----7--7--7--7-| 
E|------------------------------------------------| 



Chorus: 
Guitars I + II 
e|------------------------------------------------| 
B|-7-----7--7--7--7--7--0--3-----3--3--3--3--3--0-| 
G|-7-----7--7--7--7--7--0--4-----4--4--4--4--4--0-| 
D|-7-----7--7--7--7--7--0--4-----4--4--4--4--4--0-| 
A|-5-----5--5--5--5--5--0--2-----2--2--2--2--2--0-| 
E|------------------------------------------------| 
+ 
e|------------------------------------------------| 
B|-3-----3--3-----3--3--3--3-----3--3-----3--3----| 
G|-4-----4--4-----4--4--4--4-----4--4-----4--4----| 
D|-5-----5--5-----5--5--5--4-----4--4-----4--4----| 
A|-5-----5--5-----5--5--5--2-----2--2-----2--2----| 
E|------------------------------------------------| 



INTERLUDE I: 
Guitar I 
e|-7----------------------------------------------| 
B|-8----------------------------------------------| 
G|-9----------------------------------------------| 
D|-9----------------------------------------------| 
A|-7----------------------------------------------| 
E|------------------------------------------------| 
+ 
e|-7--------7--------------7--7--7--7-----7--7----| 
B|-8--------8--------------8--8--8--8-----8--8----| 
G|-9--------9--------------9--9--9--9-----9--9----| 
D|-9--------9--------------9--9--9--9-----9--9----| 
A|-7--------7--------------7--7--7--7-----7--7----| 
E|------------------------------------------------| 



VERSE II: 
Guitars I 
e|------------------------------------------------| 
B|-5-----5--x--1-----1--#-----7--7--7--------3--#-| 
G|-5-----5--x--2-----2--#-----7--7--7--4-----4--#-| 
D|-5-----5--x--2-----2--#-----7--7--7--4-----4--#-| 
A|-3-----3--x--0-----0--#-----5--5--5--2-----2--#-| 
E|------------------------------------------------| 
+ 
e|-------7-----7--7--#-----------7-----7--7--#----| 
B|-8-----8-----8--8--#--0--8-----8-----8--8--#--0-| 
G|-9-----9-----9--9--#--0--9-----9-----9--9--#--0-| 
D|-9-----9-----9--9--#--0--9-----9-----9--9--#--0-| 
A|-7-----7-----7--7--#-----7-----7-----7--7--#----| 
E|------------------------------------------------| 
+ 
e|------------------------------------------------| 
B|-5-----5--x--1-----1--#-----7--7--7--------3--#-| 
G|-5-----5--x--2-----2--#-----7--7--7--4-----4--#-| 
D|-5-----5--x--2-----2--#-----7--7--7--4-----4--#-| 
A|-3-----3--x--0-----0--#-----5--5--5--2-----2--#-| 
E|------------------------------------------------| 
+ 
e|-------7--#--x--7--#-----------7-----7--7--7----| 
B|-8-----8--#--x--8--#--x--8-----8-----8--8--8----| 
G|-9-----9--#--x--9--#--x--9-----9-----9--9--9----| 
D|-9-----9--#--x--9--#--x--9-----9-----9--9--9----| 
A|-7-----------------------7-----7-----7--7--7----| 
E|------------------------------------------------| 



VERSE II: 
Guitars II 
e|------------------------------------------------| 
B|-5-----5--x--1-----1--#-----7--7--7--------3--#-| 
G|-5-----5--x--2-----2--#-----7--7--7--4-----4--#-| 
D|-5-----5--x--2-----2--#-----7--7--7--4-----4--#-| 
A|------------------------------------------------| 
E|------------------------------------------------| 
+ 
e|------------------------------------------------| 
B|-8-----8--#--x--8--#-----8-----8-----8--8--8----| 
G|-9-----9--#--x--9--#-----9-----9-----9--9--9----| 
D|-9-----9--#--x--9--#-----9-----9-----9--9--9----| 
A|-7-----------------------7-----7-----7--7--7----| 
E|------------------------------------------------| 
+ 
e|------------------------------------------------| 
B|-5-----5--x--1-----1--#-----7--7--7--------3--#-| 
G|-5-----5--x--2-----2--#-----7--7--7--4-----4--#-| 
D|-5-----5--x--2-----2--#-----7--7--7--4-----4--#-| 
A|-3-----3--x--0-----0--#-----5--5--5--2-----2--#-| 
E|------------------------------------------------| 
+ 
e|-------7--#--x--7--#-----------7-----7--7--7----| 
B|-8-----8--#--x--8--#--x--8-----8-----8--8--8----| 
G|-9-----9--#--x--9--#--x--9-----9-----9--9--9----| 
D|-9-----9--#--x--9--#--x--9-----9-----9--9--9----| 
A|-7-----------------------7-----7-----7--7--7----| 
E|------------------------------------------------| 



INTERLUDE II: 
Guitar I 
e|-7----------------------------------------------| 
B|-8----------------------------------------------| 
G|-9----------------------------------------------| 
D|-9----------------------------------------------| 
A|-7----------------------------------------------| 
E|------------------------------------------------| 
+ 
e|------------------------------------------------| 
B|------------------------------------------------| 
G|------------------------------------------------| 
D|------------------------------------------------| 
A|------------------------------------------------| 
E|------------------------------------------------| 
+ 
e|------------------------------------------------| 
B|-------8-----------------------8--------8-------| 
G|----9-----------------------9-------------------| 
D|-9-----------------------9----------------------| 
A|------------------------------------------------| 
E|------------------------------------------------| 
+ 
e|----------------------------------7-------------| 
B|-------8-----------------------8--------8-------| 
G|----9-----------------------9-------------------| 
D|-9-----------------------9----------------------| 
A|------------------------------------------------| 
E|------------------------------------------------| 



INTERLUDE II: 
Guitar II 
e|------------------------------------------------|| 
B|------------------------------------------------|| 
G|------------------------------------------------|| x 3 
D|------------------------------------------------|| 
A|------------------------------------------------|| 
E|------------------------------------------------|| 
+ 
e|----------------------------------7-------------| 
B|-------8-----------------------8--------8-------| 
G|----9-----------------------9-------------------| 
D|-9-----------------------9----------------------| 
A|------------------------------------------------| 
E|------------------------------------------------| 



SOLO I: 
Guitar I 
e|------------------------------------------------| 
B|-1-----------------------1----------------------| 
G|-0-----------------------2----------------------| 
D|-2-----------------------2----------------------| 
A|-3-----------------------0----------------------| 
E|------------------------------------------------| 
+ 
e|------------------------------------------------| 
B|-3-----------------------3----------------------| 
G|-2-----------------------4----------------------| 
D|-0-----------------------4----------------------| 
A|------------------------------------------------| 
E|------------------------------------------------| 
+ 
e|-7--------7-----7--7----------------------------| 
B|-8--------8-----8--8--0--1--------1-----1--1--0-| 
G|-9--------9-----9--9--0--0--------0-----0--0--0-| 
D|-9--------9-----9--9--0--2--------2-----2--2--0-| 
A|-------------------------0--------0-----0--0----| 
E|------------------------------------------------| 
+ 
e|------------------------------------------------| 
B|-3-----3--3-----3--3--0--3-----3--3-----3--3--#-| 
G|-4-----4--4-----4--4--0--4-----4--4-----4--4--#-| 
D|-5-----5--5-----5--5--0--4-----4--4-----4--4--#-| 
A|-5-----5--5-----5--5--0--2-----2--2-----2--2--#-| 
E|------------------------------------------------| 
+ 
e|-7-----------------------7--#-------------------| 
B|-8-----------------------8--#-----8--#----------| 
G|-9-----------------------9--#-----9--#----------| 
D|-9-----------------------9--#-----9--#----------| 
A|-7----------------------------------------------| 
E|------------------------------------------------| 
+ 
e|-7--#-----7--#----------------------------------| 
B|-8--#-----8--#-----------8--------8-----8--8--8-| 
G|-9--#-----9--#-----------9--------9-----9--9--9-| 
D|-9--#-----9--#-----------9--------9-----9--9--9-| 
A|------------------------------------------------| 
E|------------------------------------------------| 



SOLO I: 
Guitar II 
e|------------------------------------------------| 
B|-8--7-------------------------------------------| 
G|-------9--7-----------------9--7----------------| 
D|----------------9--------7--------9-----7-------| 
A|------------------------------------------------| 
E|------------------------------------------------| 
+ 
e|------------------------------------------------| 
B|------------------------------------------------| 
G|------------------------------------------------| 
D|-9-----------------------9----------------------| 
A|----7-----9-----7-----------7-----9-----7-------| 
E|------------------------------------------------| 
+ 
e|------------------------------------------------| 
B|------------------------------------------------| 
G|-------------------------9--7-----------9--7----| 
D|-9-----------------------------9--7-------------| 
A|----7-----9-----7-------------------------------| 
E|------------------------------------------------| 
+ 
e|------------------------------------------------| 
B|------------------------------------------------| 
G|-------------------------7--------9--------11---| 
D|-5-----7-/9-------------------------------------| 
A|------------------------------------------------| 
E|------------------------------------------------| 
+ 
e|------------------------------------------------| 
B|------------------------------------------------| 
G|-9----------------------------------------------| 
D|------------------------------------------------| 
A|------------------------------------------------| 
E|------------------------------------------------| 
+ 
e|------------------------------------------------| 
B|------------------------------------------------| 
G|------------------------------------------------| 
D|------------------------------------------------| 
A|------------------------------------------------| 
E|------------------------------------------------| 



VERSE III: 
Guitars I 
e|------------------------------------------------| 
B|-5-----5--0--1-----1--0--#--7--7--#--3-----3--#-| 
G|-5-----5--0--2-----2--0--#--7--7--#--4-----4--#-| 
D|-5-----5--0--2-----2--0--#--7--7--#--4-----4--#-| 
A|-3-----3--0--0-----0--0--#--5--5--#--2-----2--#-| 
E|------------------------------------------------| 
+ 
e|-7-----7--#--x--7--#-----7-----7-----7--7-------| 
B|-8-----8--#--x--8--#-----8-----8-----8--8--0--x-| 
G|-9-----9--#--x--9--#-----9-----9-----9--9--0--x-| 
D|-9-----9--#--x--9--#-----9-----9-----9--9--0--x-| 
A|-7-----7--#--x--7--#-----7-----7-----7--7--0--x-| 
E|------------------------------------------------| 
+ 
e|------------------------------------------------| 
B|-5-----5--x--1-----1--#-----7--7--x--3-----3--#-| 
G|-5-----5--x--2-----2--#-----7--7--x--4-----4--#-| 
D|-5-----5--x--2-----2--#-----7--7--x--4-----4--#-| 
A|-3-----3--x--0-----0--#-----5--5--x--2-----2--#-| 
E|------------------------------------------------| 
+ 
e|-7--7--7--7--7--7--7--7--7--7--7--7--7--7--7----| 
B|-8--8--8--8--8--8--8--8--8--8--8--8--8--8--8--0-| 
G|-9--9--9--9--9--9--9--9--9--9--9--9--9--9--9--0-| 
D|-9--9--9--9--9--9--9--9--9--9--9--9--9--9--9--0-| 
A|------------------------------------------------| 
E|------------------------------------------------| 



VERSE III: 
Guitars II 
e|------------------------------------------------| 
B|-5-----5--0--1-----1--0--#--7--7--#--3-----0--#-| 
G|-5-----5--0--2-----2--0--#--7--7--#--4-----0--#-| 
D|-5-----5--0--2-----2--0--#--7--7--#--4-----0--#-| 
A|------------------------------------------------| 
E|------------------------------------------------| 
+ 
e|------------------------------------------------| 
B|-8-----8--#--x--8--#-----8-----8-----8--8--0--x-| 
G|-9-----9--#--x--9--#-----9-----9-----9--9--0--x-| 
D|-9-----9--#--x--9--#-----9-----9-----9--9--0--x-| 
A|------------------------------------------------| 
E|------------------------------------------------| 
+ 
e|------------------------------------------------| 
B|-------5--x--1-----1--#-----7--7--x--3-----x----| 
G|-5-----5--x--2-----2--#-----7--7--x--4-----x----| 
D|-5-----5--x--2-----2--#-----7--7--x--4-----x----| 
A|------------------------------------------------| 
E|------------------------------------------------| 
+ 
e|------------------------------------------------| 
B|-------8--#--------8--#--------8--#--------8--#-| 
G|-------9--#--------9--#--------9--#--------9--#-| 
D|-------9--#--------9--#--------9--#--------9--#-| 
A|------------------------------------------------| 
E|------------------------------------------------| 



INTERLUDE III: 
Guitar I 
e|-7----------------------------------------------| 
B|-8----------------------------------------------| 
G|-9----------------------------------------------| 
D|-9----------------------------------------------| 
A|-7----------------------------------------------| 
E|------------------------------------------------| 
+ 
e|------------------------------------------------| 
B|-8----------------------------------------------| 
G|-9----------------------------------------------| 
D|-9----------------------------------------------| 
A|------------------------------------------------| 
E|------------------------------------------------| 
+ 
e|------------------------------------------------| 
B|-------8-----------------------8--------8-------| 
G|----9-----------------------9-------------------| 
D|-9-----------------------9----------------------| 
A|------------------------------------------------| 
E|------------------------------------------------| 
+ 
e|------------------------------------------------| 
B|-------8-----------------------8--------8-------| 
G|----9-----------------------9-------------------| 
D|-9-----------------------9----------------------| 
A|------------------------------------------------| 
E|------------------------------------------------| 



INTERLUDE III: 
Guitar II 
e|------------------------------------------------|| 
B|------------------------------------------------|| 
G|------------------------------------------------|| x 3 
D|------------------------------------------------|| 
A|------------------------------------------------|| 
E|------------------------------------------------|| 
+ 
e|------------------------------------------------| 
B|-------8-----------------------8--------8--#----| 
G|----9-----------------------9-------------------| 
D|-9-----------------------9----------------------| 
A|------------------------------------------------| 
E|------------------------------------------------| 



SOLO II: 
Guitar I 
e|------------------------------------------------| 
B|-1--------1-----1--1--0--1--------1-----1--1--0-| 
G|-0--------0-----0--0--0--2--------2-----2--2--0-| 
D|-2--------2-----2--2--0--2--------2-----2--2--0-| 
A|-3--------3-----3--3--0--0--------0-----0--0--0-| 
E|------------------------------------------------| 
+ 
e|------------------------------------------------| 
B|-3-----3--3-----3--3--0--3-----3--3-----3--3--0-| 
G|-2-----2--2-----2--2--0--4-----4--4-----4--4--0-| 
D|-0-----0--0-----0--0--0--4-----4--4-----4--4--0-| 
A|-------------------------2-----2--2-----2--2--0-| 
E|------------------------------------------------| 
+ 
e|-7-----7--7-----7--7----------------------------| 
B|-8-----8--8-----8--8--0--1-----1--1-----1--1--0-| 
G|-9-----9--9-----9--9--0--0-----0--0-----0--0--0-| 
D|-9-----9--9-----9--9--0--2-----2--2-----2--2--0-| 
A|-------------------------0-----0--0-----0--0----| 
E|------------------------------------------------| 
+ 
e|------------------------------------------------| 
B|-3-----3--3-----3--3--0--3-----3--3-----3--3--#-| 
G|-4-----4--4-----4--4--0--4-----4--4-----4--4--#-| 
D|-5-----5--5-----5--5--0--4-----4--4-----4--4--#-| 
A|-5-----5--5-----5--5--0--2-----2--2-----2--2--#-| 
E|------------------------------------------------| 
+ 
e|-7----------------------------------------------| 
B|-8----------------------------------------------| 
G|-9----------------------------------------------| 
D|-9----------------------------------------------| 
A|-7----------------------------------------------| 
E|------------------------------------------------| 
+ 
e|-------------------------7-----7----------------| 
B|----8--------------------8-----8----------------| 
G|-9--9--------------------------9----------------| 
D|-9----------------------------------------------| 
A|------------------------------------------------| 
E|------------------------------------------------| 
+ 
e|------------------------------------------------| 
B|------------------------------------------------| 
G|-------------9----------------------------------| 
D|------------------------------------------------| 
A|------------------------------------------------| 
E|------------------------------------------------| 



SOLO II: 
Guitar II 
e|------------------------------------------------| 
B|-8--7-------------------------------------------| 
G|-------9--7-----------------9--7----------------| 
D|----------------9--------7--------9-----7-------| 
A|------------------------------------------------| 
E|------------------------------------------------| 
+ 
e|------------------------------------------------| 
B|------------------------------------------------| 
G|------------------------------------------------| 
D|-9-----------------------9----------------------| 
A|----7-----9-----7-----------7-----9-----7-------| 
E|------------------------------------------------| 
+ 
e|------------------------------------------------| 
B|------------------------------------------------| 
G|-------------------------9--7-----------9--7----| 
D|-9-----------------------------9--7-------------| 
A|----7-----9-----7-------------------------------| 
E|------------------------------------------------| 
+ 
e|------------------------------------------------| 
B|------------------------------------------------| 
G|-------------------------7--------9--------11---| 
D|-5--------7--------9----------------------------| 
A|------------------------------------------------| 
E|------------------------------------------------| 
+ 
e|------------------------------------------------| 
B|-------------------------11-#-------------------| 
G|-9-----------------------9-(9)------------------| 
D|------------------------------------------------| 
A|------------------------------------------------| 
E|------------------------------------------------| 
+ 
e|------------------------------------------------| 
B|------------------------------------------------| 
G|------------------------------------------------| 
D|------------------------------------------------| 
A|------------------------------------------------| 
E|------------------------------------------------| 

 
		  

See also:

tabs Natalie Imbruglia - Torn tabs Ball Park Music - Everything Is Shit Except My Friendship With You tabs Julia Stone - The Memory Machine tabs The Jungle Giants - Devils In The Detail tabs Jayesslee - Failure In Disguise tabs 5 Seconds Of Summer - Teenage Dream
e-chords

Other versions:

tabs Go-Betweens - I Need Two Heads
auto scroll beats size up size down change color hide chords drawings
tab show chords e-chords YouTube Clip e-chords hide all tabs e-chords go to top tab

share