Giraffes Giraffes

home > Giraffes Giraffes

Curse Of The Tooth Nightmare Tab

Giraffes Giraffes

Difficulty: nolevelnolevel

by LINEKERS

tuner correct add songbook print version text version save to e-mail
chordsukulelecavacokeyboardtabbassdrumsharmonicsflute Guitar Pro
chords

Curse Of The Tooth Nightmare

  		Riff 1 
D------------------------------------------------------------| 
A------------------------------------------------------------| 
G------------------------------------------------------------| 
D----------------------------------------5--5--5-------------| 
A-------------5-----5/4------4------4------------------------| 
D--5p0h5p0h5p0h5p0h5p0h5p0h4p0h4p0h4p0h4p0h4p0h4p0-----------| 


Riff 2 
D-------------------------------------| 
A-------------------------------------| 
G-------------------------------------| 
D-------------------------------------| 
A-------------5-----7---9---7---5-----| 
D--5p0h5p0h5p0h5p0h5p0h5p0h5p0h5p0----| 


Riff 1/2 
D------------------------------------------------------------| 
A------------------------------------------------------------| 
G------------------------------------------------------------| 
D------------------------------------------------------------| 
A-------------5-----5/4------4------4-----4-----4------------| 
D--5p0h5p0h5p0h5p0h5p0h5p0h4p0h4p0h4p0h4p0h4p0h4p0-----------| 


Riff 1.2 
D------------------------------------------------------------| 
A------------------------------------------------------------| 
G------------------------------------------------------------| 
D----------------------------------------7--7--7-------------| 
A-------------5-----5/4------4------4------------------------| 
D--5p0h5p0h5p0h5p0h5p0h5p0h4p0h4p0h4p0h4p0h4p0h4p0-----------| 

Riff 3 
D-------------------------------------------------------------------------| 
A-------------------------------------------------------------------------| 
G-------------------------------------------------------------------------| 
D------------------------------7------------------------------------------| 
A--7---9------7---9------7---9---9------7---9------7---9------7---9---9---| 
D--5p0h5p0h5p0h5p0h5p0h5p0h5p0h5p0h5p0h5p0h5p0h5p0h5p0h5p0h5p0h5p0h5p0h5--| 

Riff 4 
D---------------------------------------| 
A---------------------------------------| 
G---------------------------------------| 
D---------------------------------------| 
A--h5h7---h7h9---h9h10---h12p9---h9p7---| 
D---------------------------------------| 


Riff 5 
D------------------------------------------------------------| 
A------------------------------------------------------------| 
G------------9------------9------------9---------------------| 
D--9---11-------9---11-------9---11--------------------------| 
A--5p0h5p0h5p0h5p0h5p0h5p0h5p0h5p0h5p0h5---------------------| 
D------------------------------------------------------------| 


Riff 3.1 
D-------------------------------------------------------------------------| 
A-------------------------------------------------------------------------| 
G-------------------------------------------------------------------------| 
D------------------------------7------------------------------------------| 
A--7---9------7---9------7---9---9------7---9------7---9------7---9---9---| 
D--4p0h4p0h4p0h4p0h4p0h4p0h4p0h4p0h4p0h4p0h4p0h4p0h4p0h4p0h4p0h4p0h4p0h4--| 


Riff 3.2 
D-------------------------------------------------------------------------| 
A-------------------------------------------------------------------------| 
G-------------------------------------------------------------------------| 
D------------------------------7------------------------------------------| 
A--7---9------7---9------7---9---9------7---9------7---9------7---9---9---| 
D--2p0h2p0h2p0h2p0h2p0h2p0h2p0h2p0h2p0h2p0h2p0h2p0h2p0h2p0h2p0h2p0h2p0h2--| 

Riff 6  w/reverb 
D-----------------------------------------------------------------| 
A-----------------------------------------------------------------| 
G-----------------------------------------------------------------| 
D-----------------------------------------------------------------| 
A-----------------------------------------------------------------| 
D----0--------7--------5---------7--------5----------7--------0---| 

Riff 7  Loop 
D------------------------------------------------------------------------| 
A----------4--4---------4--4--------4---------4--4-----------------------| 
G------------------------------------------------------------------------| 
D---------------------------------------------------------7p0---7--------| 
A----------4--4---------4--4--------4---------4--4-----4-----------------| 
D----4-------------4------------4--------4-----------5--------5----------| 

Riff 8  2X      w/reverb & effects (octave/detune?) 
D------------------------------------------------------------| 
A---5---------4----------------5---------4--------7----------| 
G------------------------------------------------------------| 
D------------------------------------------------------------| 
A------------------------------------------------------------| 
D------------------------------------------------------------| 


Riff 9 w/reverb,let low note hang       4X 
D---------------------------------| 
A--9---------7----------4---------| 
G---------------------------------| 
D---------------------------------| 
A---------------------------------| 
D--0------------------------------| 


Riff 1 -> Riff 2 -> Riff 1.2 -> Riff 2 -> Riff 1/2 
Riff 3 -> Riff 4 
Riff 1 -> Riff 2 -> Riff 1/2 -> Riff 1.2 -> Riff 2 -> Riff 1.2 
Riff 3 -> Riff 5 -> Riff 3 -> Riff 5 
Riff 1 -> Riff 2 -> Riff 1.2 -> Riff 1/2 
Riff 3 -> Riff 5 -> Riff 3 -> Riff 5 -> Riff 3 
Riff 3.1 
Riff 3.2 
Riff 6 
Riff 1 -> Riff 2 -> Riff 1.2 -> Riff 2 -> Riff 1/2 
Riff 3 -> Riff 5 -> Riff 3 -> Riff 5 -> Riff 3 
Riff 3.1 
Riff 3.2 
Riff 7 (5X) -> Riff 8 (After 1X) 
Riff 9 
Riff 7 (4x) & Riff 8 
Riff 9 
	  

Search Paypal
auto scroll beats size up size down change color hide chords drawings
tab show chords e-chords YouTube Clip e-chords hide all tabs e-chords go to top tab