Gilberto Gil

home > Gilberto Gil

Sítio do Pica-Pau Amarelo Tab

Gilberto Gil

Difficulty: BeginnerBeginner

by nowhere%5Fman

tuner correct add songbook print version text version save to e-mail
chordsukulelecavacokeyboardtabbassdrumsharmonicsflute Guitar Pro
chords

Sítio do Pica-Pau Amarelo

Year: 2004 - Album: Kaya N'Gan Daya: Ao Vivo

  		 
e|--12-10----------------10-12-12-10-------------------------------| 
B|--------12-10----10-12------------12-10----10~-------------------| 
G|--------------11------------------------11-----------------------|  
D|-----------------------------------------------------------------| 
A|-----------------------------------------------------------------| 
E|-----------------------------------------------------------------| 
 
e|--12-10----------------10-12-12-10-------------------------------| 
B|--------12-10----10-12------------12-10----10~-------------------| 
G|--------------11------------------------11-----------------------|  
D|-----------------------------------------------------------------| 
A|-----------------------------------------------------------------| 
E|-----------------------------------------------------------------| 
 
e|----7-10-10-8-7-8-7-----4-7-7-5-4-5-4-----9-12-12-10-9-10-9------| 
B|--8-------------------5----------------10------------------------| 
G|-----------------------------------------------------------------| 
D|-----------------------------------------------------------------| 
A|-----------------------------------------------------------------| 
E|-----------------------------------------------------------------| 
 
e|---7-10-10-------------------------------------------------------| 
B|-8---------8-10-8------------------------------------------------| 
G|------------------11-9-7-----------------------------------------| 
D|-----------------------------------------------------------------| 
A|-----------------------------------------------------------------| 
E|-----------------------------------------------------------------| 
 
e|---7-10-10-12-13-12-10-12-10-------------------------------------| 
B|-8---------------------------------------------------------------| 
G|-----------------------------------------------------------------| 
D|-----------------------------------------------------------------| 
A|-----------------------------------------------------------------| 
E|-----------------------------------------------------------------| 

	  

Search Paypal
auto scroll beats size up size down change color hide chords drawings
tab show chords e-chords YouTube Clip e-chords hide all tabs e-chords go to top tab