Gheorghe Zamfir

The Lonely Shepherd

Gheorghe Zamfir

tabs Expert expert

by  AMAN_CLAUDINO

save to print version add songbook text version e-mail correct tuner
chordsukulelecavacokeyboardtabbassdrumsharmonicaflute Guitar Pro
close

there isn't a video lesson for this song

chords

The Lonely Shepherd

	  		Tabbed by: Rob Freeman 
E-mail: [email protected] 

Tuning: Standard 
This lovely Romanian song is composed by Gheorghe Zamfir. 

This song is most notably from the Kill Bill film soundtrack. 
/watch?v=1qsgBF7ZIsk < Link of the song 
This is all the Pan Flute piece, Nothing else!!!! 
e|----17--15--17-----17--15--17-----------------------------10--8--10--------| 
B|------------------------------------------------------10-------------------| 
G|---------------------------------7--7--9--9--10--10------------------------| 
D|---------------------------------------------------------------------------| 
A|---------------------------------------------------------------------------| 
E|---------------------------------------------------------------------------| 

e|---8--6--8---------------------------------------10--8--10---8--6--8-------| 
B|-------------8--10---------------------------10----------------------8--10-| 
G|-------------------------7--7--9--9--10--10--------------------------------| 
D|---------------------------------------------------------------------------| 
A|---------------------------------------------------------------------------| 
E|---------------------------------------------------------------------------| 

e|-----------------10--8--------------------------8--6--5--5-----5-----------| 
B|---10--8--6--6----------11--11----8--6----------------------------8--6--6--| 
G|----------------------------------------9--9-------------------------------| 
D|---------------------------------------------------------------------------| 
A|---------------------------------------------------------------------------| 
E|---------------------------------------------------------------------------| 

e|---13--12--10--10-------10--8------------------------------17--15--17------| 
B|-------------------------------8--10--8--10--------------------------------| 
G|---------------------------------------------------------------------------| 
D|---------------------------------------------------------------------------| 
A|---------------------------------------------------------------------------| 
E|---------------------------------------------------------------------------| 
Then the awesome bit comes in but this is still all the pan flute part and nothing else!!!! 
e|-----6--5--6----8--6--8------13--12--10--12--10--8--10--8--6--8--6--5------| 
B|---------------------------------------------------------------------------| 
G|---------------------------------------------------------------------------| 
D|---------------------------------------------------------------------------| 
A|---------------------------------------------------------------------------| 
E|---------------------------------------------------------------------------| 

e|----10--8--10------12--12--10--12----15--13--12--10--12--8-----------------| 
B|---------------------------------------------------------------------------| 
G|---------------------------------------------------------------------------| 
D|---------------------------------------------------------------------------| 
A|---------------------------------------------------------------------------| 
E|---------------------------------------------------------------------------| 

e|-----5--5----------------10--8--6--6----6--5-------------------------------| 
B|----------8--6--6--6--------------------------8--6--5--6-------------------| 
G|---------------------------------------------------------------------------| 
D|---------------------------------------------------------------------------| 
A|---------------------------------------------------------------------------| 
E|---------------------------------------------------------------------------| 

e|---------------------------10--8--10------/10--8--6--8----/10--------------| 
B|------------------------10-------------------------------------10--8--10----| 
G|----7--7--9--9--10--10-----------------------------------------------------| 
D|---------------------------------------------------------------------------| 
A|---------------------------------------------------------------------------| 
E|---------------------------------------------------------------------------| 

e|----------------------------10--8--10---8--6--8-------12--13--15--13--12---| 
B|8-----------------------10-------------------------------------------------| 
G|----7--7--9--9--10--10-----------------------------------------------------| 
D|---------------------------------------------------------------------------| 
A|---------------------------------------------------------------------------| 
E|---------------------------------------------------------------------------| 

e|---10--8--6--8------8--6--5----5-------------------------------------------| 
B|----------------------------8----------------------------------------------| 
G|---------------------------------------------------------------------------| 
D|---------------------------------------------------------------------------| 
A|---------------------------------------------------------------------------| 
E|---------------------------------------------------------------------------| 

e|-----------------10--8--------------------------8--6--5--5-----5-----------| 
B|---10--8--6--6----------11--11----8--6----------------------------8--6--6--| 
G|----------------------------------------9--9-------------------------------| 
D|---------------------------------------------------------------------------| 
A|---------------------------------------------------------------------------| 
E|---------------------------------------------------------------------------| 

e|---13--12--10--10-------10--8------------------------------17--15--17------| 
B|-------------------------------8--10--8--10--------------------------------| 
G|---------------------------------------------------------------------------| 
D|---------------------------------------------------------------------------| 
A|---------------------------------------------------------------------------| 
E|---------------------------------------------------------------------------| 

e|-----17--15--17------------------------------------------------------------| 
B|-------------------------7--10-----------7--10-----------------------------| 
G|-------------------7--9------------7--9------------------------------------| 
D|---------------------------------------------------------------------------| 
A|---------------------------------------------------------------------------| 
E|---------------------------------------------------------------------------| 
Thanks for Viewing!!!!! 
		  

auto scroll beats size up size down change color hide chords drawings
tab show chords e-chords YouTube Clip e-chords hide all tabs e-chords go to top tab

share