Gerard Way

Hazy Shade Of Winter

Gerard Way

tabs

by  TAMAMOREIRA

save to print version add songbook text version e-mail correct tuner
chordsukulelecavacokeyboardtabbassdrumsharmonicaflute Guitar Pro
close

there isn't a video lesson for this song

chords

Hazy Shade Of Winter

	  		Intro 

e|---------------------------------------| 
B|---------------------------------------| 
G|-------5------8-6~-5-------5~----------| 
D|----6h8---8-6-----------6h8---8-6------| 
A|-8-8--------6~-6-----4-4---------------| 
E|---------------------------------------| 

e|---------------------------------------| 
B|---------------------------------------| 
G|---5-3~-5------------------------------| 
D|--6------------------------------------| 
A|-3-------------------------------------| 
E|---------------------------------------| 


Verse/Chorus 

e|---------------------------------------| 
B|---------------------------------------| 
G|-5-5-5-5-5-3-4-5-5-5-5-5-5-5-5-5-5-----| 
D|-3-3-3-3-3-1-2-3-3-3-3-3-3-3-3-3-3-----| 
A|---------------------------------------| 
E|---------------------------------------| 

e|---------------------------------------| 
B|---------------------------------------| 
G|---------------------------------------| 
D|-8-8-8-8-8-8-8-8-8-8-8-8-8-8-8-8-------| 
A|-6-6-6-6-6-6-6-6-6-6-6-6-6-6-6-6-------| 
E|---------------------------------------| 

e|---------------------------------------| 
B|---------------------------------------| 
G|---------------------------------------| 
D|-6-6-6-6-6-6-6-6-6-6-6-6-6-6-6-6-------| 
A|-4-4-4-4-4-4-4-4-4-4-4-4-4-4-4-4-------| 
E|---------------------------------------| 

e|---------------------------------------| 
B|---------------------------------------| 
G|-------5------8-6~-5-------5~----------| 
D|----6h8---8-6-----------6h8---8-6------| 
A|-8-8--------6~-6-----4-4---------------| 
E|---------------------------------------| 

e|---------------------------------------| 
B|---------------------------------------| 
G|---5-3~-5------------------------------| 
D|--6------------------------------------| 
A|-3-------------------------------------| 
E|---------------------------------------| 

Post-Verse Bridge 

e|---------------------------------------| 
B|---------------------------------------| 
G|---------------------------------------| 
D|-8~-------8-9-10-----------------------| 
A|-6~-------6-7-8------------------------| 
E|---------------------------------------| 

Verse/Chorus 

e|---------------------------------------| 
B|---------------------------------------| 
G|-5-5-5-5-5-3-4-5-5-5-5-5-5-5-5-5-5-----| 
D|-3-3-3-3-3-1-2-3-3-3-3-3-3-3-3-3-3-----| 
A|---------------------------------------| 
E|---------------------------------------| 

e|---------------------------------------| 
B|---------------------------------------| 
G|---------------------------------------| 
D|-8-8-8-8-8-8-8-8-8-8-8-8-8-8-8-8-------| 
A|-6-6-6-6-6-6-6-6-6-6-6-6-6-6-6-6-------| 
E|---------------------------------------| 

e|---------------------------------------| 
B|---------------------------------------| 
G|---------------------------------------| 
D|-6-6-6-6-6-6-6-6-6-6-6-6-6-6-6-6-------| 
A|-4-4-4-4-4-4-4-4-4-4-4-4-4-4-4-4-------| 
E|---------------------------------------| 

e|---------------------------------------| 
B|---------------------------------------| 
G|-------5------8-6~-5-------5~----------| 
D|----6h8---8-6-----------6h8---8-6------| 
A|-8-8--------6~-6-----4-4---------------| 
E|---------------------------------------| 

e|---------------------------------------| 
B|---------------------------------------| 
G|---5-3~-5------------------------------| 
D|--6------------------------------------| 
A|-3-------------------------------------| 
E|---------------------------------------| 

Outro Solo 

e|---13~-15~-16~-13~-15~-16~-13~-15~-16~-| 
B|---------------------------------------| 
G|-10~-----------------------------------| 
D|---------------------------------------| 
A|---------------------------------------| 
E|---------------------------------------| 

e|-20p18p16-18p16-12-13---13-------------| 
B|------------17b18-17b18----------------| 
G|---------------------------------------| 
D|---------------------------------------| 
A|---------------------------------------| 
E|---------------------------------------| 




************************************ 

| ~  Vibrato 
| h  Hammer-on 
| p  Pull-off 
| b  Bend 

************************************ 
		  

See also:

tabs Ira! - Envelheço na Cidade tabs Deep Purple - Smoke On Water tabs Ira! - Inundação de Amor tabs Deep Purple - Stormbringer tabs Deep Purple - Money Talks tabs Ira! - A vida por um fio
e-chords

Other versions:

tabs Gerard Way - Hazy Shade Of Winter
auto scroll beats size up size down change color hide chords drawings
tab show chords e-chords YouTube Clip e-chords hide all tabs e-chords go to top tab

share