Gerard Way

Get The Gang Together

Gerard Way

tabs

by  ROBEPOIEL

save to print version add songbook text version e-mail correct tuner
chordsukulelecavacokeyboardtabbassdrumsharmonicaflute Guitar Pro
close

there isn't a video lesson for this song

chords

Get The Gang Together

	  		
 

INTRO 0:00 (Listen to song for timing) 
e|---------------------------------------------------------------------------| 
B|------------------------------------------(DO THIS)------------------------| 
G|------------------------------------------(   x2  )------------------------| 
D|---------------------------------------------------------------------------| 
A|-7-7--7-7-7--7-7-7--7-7-7--7-6-6--6-6-6--6-6-6--6-6-6--6-------------------| 
E|-5-5--5-5-5--5-5-5--5-5-5--5-4-4--4-4-4--4-4-4--4-4-4--4-------------------| 

e|-----------------------------------|----------------------------------------| 
B|-------------------------(DO THIS)-|----------------------------------------| 
G|-------------------------(   x2  )-|----------------------------------------| 
D|-----------------------------------|----------------------------------------| 
A|-10-10--10-10-10--10-7-7--7-7-7--7-|-6-6--6-6-6--6-6-6--6-6-6--6------------| 
E|-8--8---8--8--8---8--5-5--5-5-5--5-|-4-4--4-4-4--4-4-4--4-4-4--4------------| 

VERSE 0:32 
e|-----------------------------|----------------------------------------------| 
B|------------(DO THIS)--------|----------------------------------------------| 
G|------------(   x2  )--------|----------------------------------------------| 
D|-----------------------------|----------------------------------------------| 
A|-7-7--7-7-7--7-6-6--6-6-6--6-|-10-10--10-10-10--10-4-4--4-4-4--4------------| 
E|-5-5--5-5-5--5-4-4--4-4-4--4-|-8--8---8--8--8---8--2-2--2-2-2--2------------| 

e|---------------------------------------------------------------------------| 
B|---------------------------------------------------------------------------| 
G|---------------------------------------------------------------------------| 
D|---------------------------------------------------------------------------| 
A|-10-10--10-10-10--10-4-4--4-4-4-3-3----------------------------------------| 
E|-8--8---8--8--8---8--2-2--2-2-2-1-1----------------------------------------| 

REPEAT VERSE 


Chorus 1:07 
e|-----------------------------|----------------------------------------------| 
B|-----------------------------|----------------------------------------------| 
G|-----------------------------|----------------------------------------------| 
D|-----------------------------|----------------------------------------------| 
A|-7------10-----4------10-----|-7------10-----4------12----------------------| 
E|-5-(x8)-8-(x8)-2-(x8)-8-(x8)-|-5-(x8)-8-(x8)-2-(x8)-10-(x8)-----------------| 

POST-Chorus 1:24 
e|---------------------------------------------------------------------------| 
B|---------------------------------------------------------------------------| 
G|---------------------------------------------------------------------------| 
D|---------------------------7-7---------------------------------------------| 
A|-7-7--7-7-7--7-7-7--7-7-7--5-5--7-7--7-7-7--7-7----------------------------| 
E|-5-5--5-5-5--5-5-5--5-5-5-------5-5--5-5-5--5-5~---------------------------| 

verse 1:32 
e|-----------------------------|----------------------------------------------| 
B|------------(DO THIS)--------|----------------------------------------------| 
G|------------(   x2  )--------|----------------------------------------------| 
D|-----------------------------|----------------------------------------------| 
A|-7-7--7-7-7--7-6-6--6-6-6--6-|-10-10--10-10-10--10-4-4--4-4-4--4------------| 
E|-5-5--5-5-5--5-4-4--4-4-4--4-|-8--8---8--8--8---8--2-2--2-2-2--2------------| 

e|---------------------------------------------------------------------------| 
B|---------------------------------------------------------------------------| 
G|---------------------------------------------------------------------------| 
D|---------------------------------------------------------------------------| 
A|-10-10--10-10-10--10-4-4--4-4-4-3-3----------------------------------------| 
E|-8--8---8--8--8---8--2-2--2-2-2-1-1----------------------------------------| 


Chorus 2:09 
e|-----------------------------|----------------------------------------------| 
B|-----------------------------|----------------------------------------------| 
G|-----------------------------|----------------------------------------------| 
D|-----------------------------|----------------------------------------------| 
A|-7------10-----4------10-----|-7------10-----4------12----------------------| 
E|-5-(x8)-8-(x8)-2-(x8)-8-(x8)-|-5-(x8)-8-(x8)-2-(x8)-10-(x8)-----------------| 

BRIDGE 2:27 
e|------------------------------|---------------------------------------------| 
B|----(DO THIS)-----------------|---------------------------------------------| 
G|----(   x3  )-----------------|---------------------------------------------| 
D|----------------------7-6-5---|-7------7-6-5--------7-----------------------| 
A|-4------8------7------5-4-3-3-|-5-(x4)-5-4-3-7------5-(x4)------------------| 
E|-2-(x4)-6-(x4)-5-(x4)-------1-|--------------5-(x4)-------------------------| 

(Second guitar plays some weird stuff here but this is played under it) 
e|-----------------------------|----------------------------------------------| 
B|-----------------------------|----------------------------------------------| 
G|-----------------------------|----------------------------------------------| 
D|-----------------------------|----------------------------------------------| 
A|-7------10-----4------10-----|-7------10-----4------12----------------------| 
E|-5-(x8)-8-(x8)-2-(x8)-8-(x8)-|-5-(x8)-8-(x8)-2-(x8)-10-(x8)-----------------| 

Chorus 3:02 
e|-----------------------------|----------------------------------------------| 
B|-----------------------------|----------------------------------------------| 
G|-----------------------------|----------------------------------------------| 
D|-----------------------------|----------------------------------------------| 
A|-7------10-----4------10-----|-7------10-----4------12----------------------| 
E|-5-(x8)-8-(x8)-2-(x8)-8-(x8)-|-5-(x8)-8-(x8)-2-(x8)-10-(x8)-----------------| 

POST-Chorus 3:30 
e|-------------------------------|--------------------------------------------| 
B|----------(DO THIS)------------|--------------------------------------------| 
G|----------(   x3  )------------|--------------------------------------------| 
D|---------------------------7-7-|--------------------------------------------| 
A|-7-7--7-7-7--7-7-7--7-7-7--5-5-|-7-7--7-7-7--7-7~---------------------------| 
E|-5-5--5-5-5--5-5-5--5-5-5------|-5-5--5-5-5--5-5~---------------------------| 



************************************ 

| /   slide up 
| \   slide down 
| h   hammer-on 
| p   pull-off 
| ~   vibrato 
| +   harmonic 
| x   Mute note 
| b   Bend 
| pb  Pre-bend 
| br  Bend release 
| pbr Pre-bend release 
| brb Bend release bend 

************************************ 
		  

See also:

tabs Ira! - Envelheço na Cidade tabs Deep Purple - Smoke On Water tabs Ira! - Inundação de Amor tabs Deep Purple - Stormbringer tabs Deep Purple - Money Talks tabs Ira! - A vida por um fio
e-chords

Other versions:

tabs Gerard Way - Get The Gang Together
auto scroll beats size up size down change color hide chords drawings
tab show chords e-chords YouTube Clip e-chords hide all tabs e-chords go to top tab

share