Gerard Way

Baby You're A Haunted House

Gerard Way

tabs

by  HUGO_RODRIGUES

save to print version add songbook text version e-mail correct tuner
chordsukulelecavacokeyboardtabbassdrumsharmonicaflute Guitar Pro
close

there isn't a video lesson for this song

chords

Baby You're A Haunted House

	  		All in standard tuning, no capos, no nothing. 


(Intro / Chorus) 

e|-----------------------------------------------------------------------------| 
B|-----------------------------------------------------------------------------| 
G|-----------66666666-----------66666666---------------------------------66666-| 
D|-4444-6666-66666666-4444-6666-66666666-4444-6666-88888-7-6-4-4444-6666-66666-| 
A|-4444-6666-44444444-4444-6666-44444444-4444-6666-88888-7-6-4-4444-6666-44444-| 
E|-2222-4444----------2222-4444----------2222-4444-66666-5-4-0-2222-4444-------| 


(verse 1) 

e|------------------------------------------------------------------------| 
B|------------------------------------------------------------------------| 
G|-----------66666666---------------------------------66666---------------| 
D|-4444-6666-66666666-4444-6666-88888-7-6-4-4444-6666-66666-666666666666--| 
A|-4444-6666-44444444-4444-6666-88888-7-6-4-4444-6666-44444-666666666666--| 
E|-2222-4444----------2222-4444-66666-6-5-0-2222-4444-------444444444444--| 


(Chorus) 

e|-----------------------------------------------------------------------------| 
B|-----------------------------------------------------------------------------| 
G|-----------66666666-----------66666666---------------------------------66666-| 
D|-4444-6666-66666666-4444-6666-66666666-4444-6666-88888-7-6-4-4444-6666-66666-| 
A|-4444-6666-44444444-4444-6666-44444444-4444-6666-88888-7-6-4-4444-6666-44444-| 
E|-2222-4444----------2222-4444----------2222-4444-66666-5-4-0-2222-4444-------| 


(Solo) 

e|-------------------------------------------------------------| 
B|-------------------------------------------------------------| 
G|------6~------6-8-10b10-8-6~--6~-8b8-6~----------------------| 
D|-6h8------6h8------------------------------6-88-1010-88-66---| 
A|-------------------------------------------------------------| 
E|-------------------------------------------------------------| 

e|-------------------------------------------------------------| 
B|-------------------------------------------------------------| 
G|-6~-------6-8-10b10-8-6~--6~--8b8--10-6~---------------------| 
D|-----6h8-----------------------------------------------------| 
A|-------------------------------------------------------------| 
E|-------------------------------------------------------------| 


....Bass break.... 


(Second Chorus) 

e|-----------------------------------------------------------------------------| 
B|-----------------------------------------------------------------------------| 
G|-----------66666666-----------66666666---------------------------------66666-| 
D|-4444-6666-66666666-4444-6666-66666666-4444-6666-88888-7-6-4-4444-6666-66666-| 
A|-4444-6666-44444444-4444-6666-44444444-4444-6666-88888-7-6-4-4444-6666-44444-| 
E|-2222-4444----------2222-4444----------2222-4444-66666-5-4-0-2222-4444-------| 


(Bridge) 

e|-------------------------------------------------------------------------------------------------------| 
B|-------------------------------------------------------------------------------------------------------| 
G|--------------222222222222--------------------222222222222-------------------------6666-5555-----------| 
D|-222222222222-222222222222-7-6-4-222222222222-222222222222-7-6-4-44444444-66666666-6666-5555-8888-6666-| 
A|-222222222222-111111111111-7-6-4-222222222222-111111111111-7-6-4-44444444-66666666-4444-3333-8888-6666-| 
E|-111111111111--------------5-4-0-111111111111--------------5-4-0-22222222-44444444-----------6666-4444-| 

e|---------------------------------------------------------| 
B|---------------------------------------------------------| 
G|---------------10-10-10-10-10-10-10-10-10-10-10-10-9-8-7-| 
D|-2222222222222-10-10-10-10-10-10-10-10-10-10-10-10-9-8-7-| 
A|-2222222222222-8--8--8--8--8--8--8--8--8--8--8--8--7-6-5-| 
E|-1111111111111-------------------------------------------| 


(Final Chorus / Outro) 

e|-----------------------------------------------------------------------------| 
B|-----------------------------------------------------------------------------| 
G|-----------66666666-----------66666666---------------------------------66666-| 
D|-4444-6666-66666666-4444-6666-66666666-4444-6666-88888-7-6-4-4444-6666-66666-| 
A|-4444-6666-44444444-4444-6666-44444444-4444-6666-88888-7-6-4-4444-6666-44444-| 
E|-2222-4444----------2222-4444----------2222-4444-66666-5-4-0-2222-4444-------| 

e|------------------------------------------------------------------------------------------------| 
B|------------------------------------------------------------------------------------------------| 
G|-----------66666666-----------66666666-----------------------------------------------------6666-| 
D|-4444-6666-66666666-4444-6666-66666666-4444-6666-88888-7-6-4-4444-6666-4444-6666-4444-6666-6666-| 
A|-4444-6666-44444444-4444-6666-44444444-4444-6666-88888-7-6-4-4444-6666-4444-6666-4444-6666-4444-| 
E|-2222-4444----------2222-4444----------2222-4444-66666-5-4-0-2222-4444-2222-4444-2222-4444------| 

h = hammer on 
b = bend 
~ = ring out the note 
		  

See also:

tabs Ira! - Eu Quero Sempre Mais (Com Pitty, intro) tabs Deep Purple - Sometimes a Feel Like Screaming tabs Deep Purple - Money Talks tabs Albert Hammond Jr - St. Justice tabs Ira! - Tarde Vazia (Acústico) tabs Deep Purple - Smoke On The Water
e-chords

Other versions:

tabs Gerard Way - Baby You're A Haunted House
auto scroll beats size up size down change color hide chords drawings
tab show chords e-chords YouTube Clip e-chords hide all tabs e-chords go to top tab

share