Gerard Lenorman

La Ballade Des Gens Heureux

Gerard Lenorman

tabs

by  ABELAMIN

save to print version add songbook text version e-mail correct tuner
chordsukulelecavacokeyboardtabbassdrumsharmonicaflute Guitar Pro
close

there isn't a video lesson for this song

chords

La Ballade Des Gens Heureux

	  		
Verse 
   G  +     +     +     +       +     +     +     +       +     +     +     +    Em +     +  Am +     + 
E|-------------------------|-------------------------|-------------------------|----------------0--------| 
B|-------------------3--3--|p0--0--0-----3--3----p0--|----0--------------3--3--|-3-----3-p0--3-----------| 
G|----0-----0-----0--------|----------0-----0--------|----------0-----0--------|----0-----------------2--| 
D|-------0-----------0-----|-------0-----------0-----|-------0-----------0-----|-------2-----------2-----| 
A|-------------2-----------|-------------2-----------|-------------2-----------|-------------0-----------| 
E|-3-----------------------|-3-----------------------|-3-----------------------|-0-----------------------| 
                     Notre   vieille Terre est une étoile             Où toi aussi et tu  brilles un peu   
                      
   D          +     +       +     +     +     +    G  +     +     +     +    D  +     +     +     + 
E|---------------------|-------------0-----2-h3--|------/7-----------------|-------------------------| 
B|------------------0--|h1-----3-----------------|-------------0-----5-\3--|----3-----3--3-----1-p0--| 
G|------------2--2-----|----2-----2-----2--------|----0-----0-----0--------|----------------2--------| 
D|-----0---------0-----|-------0-----------0-----|-------0-----------0-----|-------0-----------0-----| 
A|-0-------0-----------|-0-----------0-----------|-------------------------|-0-----------0-----------| 
E|---------------------|-------------------------|-3-----------3-----------|-------------------------| 
             Je viens te chanter     la    balla-        de,   la    balla-     de    des gens heureux.  
                    
   G  +     +     +     +    D  +     +     +     +    G  +     +     +     +    D  +     + 
E|-------------------------|-------------0-----2-h3--|------/7-----------------|---------------------| 
B|----------------------0--|h1-----3-----------------|-------------0-----5-\3--|----3-----3--3-------| 
G|----0-----0-----2--2-----|----2-----2-----2--------|----0-----0-----0--------|---------------------| 
D|-------0-----------0-----|-------0-----------0-----|-------0-----------0-----|-------0---------4---| 
A|-------------0-----------|-0-----------0-----------|-------------------------|-0-----------0---0---| 
E|-3-----------------------|-------------------------|-3-----------3-----------|---------------------| 
                 Je viens te chanter     la    balla-        de,   la    balla-     de des gens heu- 
                  
   G          +     + 
E|---------------------| 
B|-0-------------------| 
G|-0----------0-----0--| 
D|-----0---------0-----| 
A|---------2-----------| 
E|-3-------------------| 
   reux. 
		  

Full key step upFull key step up
Half key step upHalf key step up
Half key step downHalf key step down
Full key step downFull key step down
hide glossary

See also:

tabs Ira! - Vitrine Viva tabs Deep Purple - Black Knight tabs Deep Purple - Demonds Eye tabs Deep Purple - Smoke on the Water (ver. 2) tabs Deep Purple - Clearly Quite Absurd tabs Ira! - Envelheço na Cidade (intro)
e-chords

Other versions:

tabs Gerard Lenorman - La Ballade Des Gens Heureux
auto scroll beats size up size down change color hide chords drawings
tab show chords e-chords YouTube Clip e-chords hide all tabs e-chords go to top tab

share