Geraldo Vandré

home > Geraldo Vandré

para não dizer que não falei das flores Tab

Geraldo Vandré

Difficulty: BeginnerBeginner

by bia%5F753

tuner correct add songbook print version text version save to e-mail
chordsukulelecavacokeyboardtabbassdrumsharmonicsflute Guitar Pro
chords

para não dizer que não falei das flores

  		 
e------------------------|-----------------------|-----------------------|------------------------| 
B------------------------|-----------------------|-----------------------|------------------------| 
G-----4-2---2-----2------|----4-2---2-----2------|-----------------------|------------------------| 
D-2-2-----5---5-4---5-4-5|2-2-----5---4-4---5-4-5|2-2-5-4-2-4-2---4-2---2|-2-2-5-4-5-4-2---4-2---4| 
A------------------------|-----------------------|--------------5-----5--|---------------5-----5--| 
E------------------------|-----------------------|-----------------------|------------------------| 
 "Caminhando....canção"    "somos...ou não"       "nas esco...construções" "caminhando...canção" 
 
 
e--------------------------|----------------------------|------------------------|-------------------------- 
B--------------------------|----------------------------|-5-------3--------------|-------------------------- 
G-4-4-5-4-4-2-2-2----------|-------2-------------------4|---4-4-4---2-2-4-2-2----|-4-4-4-2------------------ 
D-----------------5-4-2---2|-5-5-5---5-5-4-4-4-5-4-4-4--|---------------------5-5|---------5-5-4-4-5-4-2---2 
A-----------------------5--|----------------------------|------------------------|-----------------------5-- 
E--------------------------|----------------------------|------------------------|-------------------------- 
  "vem vamos....é saber"     "quem sabe...acontecer"       "vem vamos....é saber"   "quem sabe...acontecer" 

	  

Search Paypal
auto scroll beats size up size down change color hide chords drawings
tab show chords e-chords YouTube Clip e-chords hide all tabs e-chords go to top tab