George Strait

Carrying Your Love With Me

George Strait

tabs Beginner beginner

save to print version add songbook text version e-mail correct tuner
chordsukulelecavacokeyboardtabbassdrumsharmonicaflute Guitar Pro
close

there isn't a video lesson for this song

chords

Carrying Your Love With Me

	  		Tab by Rick Wood 
intro (is also played as solo) 
 
 
I think it is doubled by another guitar or steel. 
 
It may not be 100% correct but I believe it's real close. 
 
 
 
 (all notes relative to capo) 
 
Sounds better with chorus pedal or maybe just a little reverb 
 
                              
e--0----------------------------0--pick with ring finger---- 
b----0/5-----0h5-------------------------------------------- 
g----------7-----7------------------------------------------ 
d--------7--------7----------------7------------------------ 
a------------------7-5--5h7p5-7----------------------------- 
E----------------------------------------------------------- 
 
 
e--0----------------------------0--pick with ring finger---- 
b----0/5-----0h5-------------------------------------------- 
g-----------7---7------------------------------------------- 
d----------7-----7------------------------------------------ 
a-----------------7-5--5h7p5-7-----7------------------------ 
E----------------------------------------------------------- 
		  

See also:

tabs Charlie Daniels - Long Haired Country Boy (ver. 2) tabs Mindy Smith - One Moment More tabs Dueling Banjos - Dueling Banjos tabs John Denver - Take Me Home, Country Roads (ver. 2) tabs Kansas - Dust In The Wind tabs Irish song/Celtic - Patty
e-chords

Other versions:

tabs George Strait - Carrying Your Love With Me tabs George Strait - Carrying Your Love With Me (ver.2)
auto scroll beats size up size down change color hide chords drawings
tab show chords e-chords YouTube Clip e-chords hide all tabs e-chords go to top tab

share