George Harrison

home > George Harrison

Your love is forever Tab

George Harrison

Difficulty: ExpertExpert

by europeu

tuner correct add songbook print version text version save to e-mail
chordsukulelecavacokeyboardtabbassdrumsharmonicsflute Guitar Pro
chords

Your love is forever

  		intro & verses: 
 
  {0:00}                    {0:05}                    {0:10} 
   D                          D                                  Dmaj7 
      u d u d d d u u           u d u d d d u u          u d u d d d u 
D  ---0---------------------|---0---------------------|--0--------------- 
A  ---5-5-5-5-5-5-5-5-------|---5-5-5-5-5-5-5-5-------|--5-5-5-5-4-4-4--- 
F# ---0-0-0-0-0-0-0-0-------|---0-0-0-0-0-0-0-0-------|--0-0-0-0-0-0-0--- 
D  ---0-0-0-0-0-0-0-0-------|-0-0-0-0-0-0-0-0-0-------|--0-0-0-0-0-0-0--- 
A  ---0--------------------5|---0--------------------5|------------------ 
D  -0-----------------0-0h4-|-------------------0-0h4-|-0---------------- 
 
 
 {0:15}                {0:20}                {0:25} 
  D             D A  D   D       Dmaj7         D 
                o o  o 
  u d u  d      u u  u   u d u d d d u 
---------------12-7-12-|---------------------|-----------0-------| 
--0------------12-7-12-|-5-5-5-5-4-4-4-7-5-4-|-0-------0---0-----| 
--0--0-0h1po0--12-7-12-|-0-0-0-0-0-0-0-0-0-0-|-0-0---0-------0---| 
--0--0---------12-7-12-|-0-0-0-0-0-0-0-------|-0-0-0-----------0-| 
-----------------------|---------------------|-------------------| 
-------------0---------|---------------------|----(0)------------| 
 
 {0:30}                       {0:35}               {0:40} 
 {* 
  G             A   Asus4 Dmaj7 D                     D 
  u d u d u d u d   d u d u u   u d u d d  d  d  d    u d u d d  u d d 
--0-0-0-0-0-0-0-----0-0-0-----|--------------------|--4-4-4-7-2--0-0-0- 
--2-2-2-2-2-2-2-0---0-0-0-4-4-|-4-4-4-4-4--7--5--4-|--0---0-0-0--5-5-5- 
--1-1-1-1-1-1-1-3---3-3-3-3-3-|-0-0-0-0-0--0--0--0-|--0---0------0-0-0- 
--0-------------2---2-2-2-4-4-|-0-0-0-0-0----------|-------------0-0-0- 
------------------0-----------|--------------------|------------------- 
------------------------------|--------------------|------------------- 
 
           {0:45}                {0:50} 
      Gsus4  G               Dmaj7 D? (as intro) 
  d d  d d   u  u d u d u d u  u   u 
-----------|---------------------|------- 
--4-5--3-3-|-2--2-2-2-2-2-2-2--4-|-5----- 
--3-0--1-1-|-1--1-1-1-1-1-1-1--3-|-0----- 
--4-0--0-0-|-0--0-0-0-0-0-0-0--0-|-0----- 
-----------|---------------------|------- 
-----------|---------------------|------- 
                                   Sublime is the summertime? 
                                   Resigned to the wintertime? 
                    
 
  {2:09} 
    D 
    u   d   u  d   d      u    d      d   u 
  --4---4---4--7---2------0----0------0------| 
  --0-------0--0---0------5----5------5---4--| 
  --0-------0-------------0----0------0---3--| 
  ------------------------0----0------0---4--| 
  -------------------------------------------| 
  -------------------------------------------| 
?I feel it and my heart knows you¹re the one 
 
   {2:14} 
     F              Dsus4 Csus4            C 
     u   d   u     d  d   u     d    d     d  d u d 
-----7---7---7----10--5---3-----3----3-----2--2-2-0| 
-----8---8---8-----8--5---3-----3----3-----3--3-3-0| 
-----6---6---6--------3---1-----1----1-----1--1-1-0| 
---------------------------------------------------| 
---------------------------------------------------| 
---------------------------------------------------| 
The guiding light in all your love shines on 
 
  {2:19}                                  {2:24} 
    D                                Gsus4  G          D 
    u  d  u d d   u  d   d    d    d  d d   u d u u    u d u 
----4--4--4-7-2---0--0---0----------------|------------------------| 
----0-----0-0-0---5--5---5----4----5--3-3-|-2-2-2-2----0-0-0-------| 
----0-----0-------0--0---0----3----0--1-1-|-1-1-1-1----0-0-0-------| 
------------------0--0---0----4----0--0-0-|-0-0-0-0----0-0-0-------| 
------------------------------------------|------------0-0-0------5| 
------------------------------------------|------------------0-0h4-| 
The only love worthy of your love is fore - ver  Ooo  Oo-o-o 
 
{2:29}                   {2:34} 
D                         D                        {solo} 
   u d u d d d u u           u d u d d d u u 
---0---------------------|---0---------------------| 
---5-5-5-5-5-5-5-5-------|---5-5-5-5-5-5-5-5-------| 
---0-0-0-0-0-0-0-0-------|---0-0-0-0-0-0-0-0-------| 
-0-0-0-0-0-0-0-0-0-------|---0-0-0-0-0-0-0-0-------| 
---0--------------------5|---0--------------------5| 
-------------------0-0h4-|-0-----------------0-0h4-| 
 
 
 
solo: 
 {2:39}                        {2:44} 
                                                     D A   D 
       v        v               v                    o o   o 
  d    d    d   d   d      d    d d  u d  u          u u   u 
--7 > 12---16--11--(7)>11--9>7-|4-4--4-4--4---------12-7-(12)-| 
-------------------------------|--0--0-0--0---------12-7-(12)-| 
--(0)u-(0)u--------------------|--0--0-0--0---------12-7-(12)-| 
--(0)u-(0)u--------------------|--0--0-0--0-0h1po0--12-7-(12)-| 
--(0)u-(0)u--------------------|------------------------------| 
--(0)u-(0)u--------------------|------------------------------| 
        a.s.o. during solo? 
 
 {2:49}                               {2:54} 
  v                v                   v                                {* 
  d      d  d      d   d  d  u    d    d d  u d u  u d   u d      u 
--7>12--19-16>12--11--16-11--7>11-9>7-|4-4--4-4-4--------7-7h9po7-------| 
--------------------------------------|--0--0-0-0--5-5>9----------9h7>5-| 
--------------------------------------|--0--0-0-0-----------------------| 
--------------------------------------|--0--0-0-0-----------------------| 
--------------------------------------|---------------------------------| 
--------------------------------------|---------------------------------| 
 
 
bridge: 
{3:18}                           {3:23} 
  D                         Dmaj7   F      Dsus4 Csus4      C 
             v                v 
  u d u   d  d   u  d  d   d  d     u  d  u  d    d  u d d  d u 
--7-7-7--14-12--12-12-12--11-11--|-10-10-10--5----3--3-3-3--2-2| 
--0-0-0----------0--0--0-----12--|--8--8--8--5----3--3-3-3--3-3| 
----0-0-------------0--0-----12--|--6--6--6--3----1--1-1-1--1-1| 
---------------------------------|-----------------------------| 
---------------------------------|-----------------------------| 
---------------------------------|-----------------------------| 
 
{3:28}                                    {3:33} 
    D                                Gsus4  G         D 
    u  d  u d d   u  d   d    d    d  d d   u d u u   u 
----4--4--4-7-2---0--0---0----------------|-------0---0-------| 
----0-----0-0-0---5--5---5----4----5--3-3-|-2-2-2-2---5-------| 
----0-----0-------0--0---0----3----0--1-1-|-1-1-1-1---0-------| 
------------------0--0---0----4----0--0-0-|-0-0-0-0---0-------| 
------------------------------------------|-------2---0-------| 
------------------------------------------|-------0---0-------| 
  
  
    
  

	  

Full key step upFull key step up
Half key step upHalf key step up
Half key step downHalf key step down
Full key step downFull key step down
Search Paypal
auto scroll beats size up size down change color hide chords drawings
tab show chords e-chords YouTube Clip e-chords hide all tabs e-chords go to top tab